  0
SECTION
  2
HEADER
  9
$ACADVER
  1
AC1021
  9
$ACADMAINTVER
 70
    25
  9
$DWGCODEPAGE
  3
ANSI_932
  9
$INSBASE
 10
0.0
 20
0.0
 30
0.0
  9
$EXTMIN
 10
30.64439016853999
 20
15.29553309141176
 30
0.0
  9
$EXTMAX
 10
1038.04439016854
 20
958.5692068429242
 30
0.0
  9
$LIMMIN
 10
0.0
 20
0.0
  9
$LIMMAX
 10
1189.0
 20
841.0
  9
$ORTHOMODE
 70
     0
  9
$REGENMODE
 70
     1
  9
$FILLMODE
 70
     1
  9
$QTEXTMODE
 70
     0
  9
$MIRRTEXT
 70
     1
  9
$LTSCALE
 40
0.25
  9
$ATTMODE
 70
     1
  9
$TEXTSIZE
 40
5.0
  9
$TRACEWID
 40
0.05
  9
$TEXTSTYLE
  7
Standard
  9
$CLAYER
  8
0
  9
$CELTYPE
  6
ByLayer
  9
$CECOLOR
 62
   256
  9
$CELTSCALE
 40
1.0
  9
$DISPSILH
 70
     0
  9
$DIMSCALE
 40
1.0
  9
$DIMASZ
 40
2.0
  9
$DIMEXO
 40
2.0
  9
$DIMDLI
 40
10.0
  9
$DIMRND
 40
0.0
  9
$DIMDLE
 40
0.0
  9
$DIMEXE
 40
1.5
  9
$DIMTP
 40
0.0
  9
$DIMTM
 40
0.0
  9
$DIMTXT
 40
4.0
  9
$DIMCEN
 40
0.09
  9
$DIMTSZ
 40
0.0
  9
$DIMTOL
 70
     0
  9
$DIMLIM
 70
     0
  9
$DIMTIH
 70
     0
  9
$DIMTOH
 70
     0
  9
$DIMSE1
 70
     0
  9
$DIMSE2
 70
     0
  9
$DIMTAD
 70
     3
  9
$DIMZIN
 70
     8
  9
$DIMBLK
  1

  9
$DIMASO
 70
     1
  9
$DIMSHO
 70
     1
  9
$DIMPOST
  1

  9
$DIMAPOST
  1

  9
$DIMALT
 70
     0
  9
$DIMALTD
 70
     2
  9
$DIMALTF
 40
25.4
  9
$DIMLFAC
 40
1.0
  9
$DIMTOFL
 70
     1
  9
$DIMTVP
 40
0.7
  9
$DIMTIX
 70
     0
  9
$DIMSOXD
 70
     0
  9
$DIMSAH
 70
     0
  9
$DIMBLK1
  1

  9
$DIMBLK2
  1

  9
$DIMSTYLE
  2
Standard
  9
$DIMCLRD
 70
     0
  9
$DIMCLRE
 70
     0
  9
$DIMCLRT
 70
     0
  9
$DIMTFAC
 40
0.5
  9
$DIMGAP
 40
0.09
  9
$DIMJUST
 70
     0
  9
$DIMSD1
 70
     0
  9
$DIMSD2
 70
     0
  9
$DIMTOLJ
 70
     1
  9
$DIMTZIN
 70
     8
  9
$DIMALTZ
 70
     0
  9
$DIMALTTZ
 70
     0
  9
$DIMUPT
 70
     1
  9
$DIMDEC
 70
     2
  9
$DIMTDEC
 70
     4
  9
$DIMALTU
 70
     2
  9
$DIMALTTD
 70
     2
  9
$DIMTXSTY
  7
Standard
  9
$DIMAUNIT
 70
     0
  9
$DIMADEC
 70
     0
  9
$DIMALTRND
 40
0.0
  9
$DIMAZIN
 70
     0
  9
$DIMDSEP
 70
    46
  9
$DIMATFIT
 70
     2
  9
$DIMFRAC
 70
     0
  9
$DIMLDRBLK
  1

  9
$DIMLUNIT
 70
     2
  9
$DIMLWD
 70
    -2
  9
$DIMLWE
 70
    -2
  9
$DIMTMOVE
 70
     2
  9
$DIMFXL
 40
1.0
  9
$DIMFXLON
 70
     0
  9
$DIMJOGANG
 40
0.7853981633974483
  9
$DIMTFILL
 70
     0
  9
$DIMTFILLCLR
 70
     0
  9
$DIMARCSYM
 70
     0
  9
$DIMLTYPE
  6

  9
$DIMLTEX1
  6

  9
$DIMLTEX2
  6

  9
$LUNITS
 70
     2
  9
$LUPREC
 70
     4
  9
$SKETCHINC
 40
0.1
  9
$FILLETRAD
 40
0.5
  9
$AUNITS
 70
     0
  9
$AUPREC
 70
     0
  9
$MENU
  1
.
  9
$ELEVATION
 40
0.0
  9
$PELEVATION
 40
0.0
  9
$THICKNESS
 40
0.0
  9
$LIMCHECK
 70
     0
  9
$CHAMFERA
 40
0.5
  9
$CHAMFERB
 40
0.5
  9
$CHAMFERC
 40
1.0
  9
$CHAMFERD
 40
0.0
  9
$SKPOLY
 70
     0
  9
$TDCREATE
 40
2456991.884513889
  9
$TDUCREATE
 40
2456991.509513889
  9
$TDUPDATE
 40
2456991.509518414
  9
$TDUUPDATE
 40
2456991.134518414
  9
$TDINDWG
 40
0.0000000116
  9
$TDUSRTIMER
 40
0.0000000116
  9
$USRTIMER
 70
     1
  9
$ANGBASE
 50
0.0
  9
$ANGDIR
 70
     0
  9
$PDMODE
 70
     0
  9
$PDSIZE
 40
0.0
  9
$PLINEWID
 40
0.0
  9
$SPLFRAME
 70
     0
  9
$SPLINETYPE
 70
     6
  9
$SPLINESEGS
 70
     8
  9
$HANDSEED
  5
3E6
  9
$SURFTAB1
 70
     6
  9
$SURFTAB2
 70
     6
  9
$SURFTYPE
 70
     6
  9
$SURFU
 70
     6
  9
$SURFV
 70
     6
  9
$UCSBASE
  2

  9
$UCSNAME
  2

  9
$UCSORG
 10
0.0
 20
0.0
 30
0.0
  9
$UCSXDIR
 10
1.0
 20
0.0
 30
0.0
  9
$UCSYDIR
 10
0.0
 20
1.0
 30
0.0
  9
$UCSORTHOREF
  2

  9
$UCSORTHOVIEW
 70
     0
  9
$UCSORGTOP
 10
0.0
 20
0.0
 30
0.0
  9
$UCSORGBOTTOM
 10
0.0
 20
0.0
 30
0.0
  9
$UCSORGLEFT
 10
0.0
 20
0.0
 30
0.0
  9
$UCSORGRIGHT
 10
0.0
 20
0.0
 30
0.0
  9
$UCSORGFRONT
 10
0.0
 20
0.0
 30
0.0
  9
$UCSORGBACK
 10
0.0
 20
0.0
 30
0.0
  9
$PUCSBASE
  2

  9
$PUCSNAME
  2

  9
$PUCSORG
 10
0.0
 20
0.0
 30
0.0
  9
$PUCSXDIR
 10
1.0
 20
0.0
 30
0.0
  9
$PUCSYDIR
 10
0.0
 20
1.0
 30
0.0
  9
$PUCSORTHOREF
  2

  9
$PUCSORTHOVIEW
 70
     0
  9
$PUCSORGTOP
 10
0.0
 20
0.0
 30
0.0
  9
$PUCSORGBOTTOM
 10
0.0
 20
0.0
 30
0.0
  9
$PUCSORGLEFT
 10
0.0
 20
0.0
 30
0.0
  9
$PUCSORGRIGHT
 10
0.0
 20
0.0
 30
0.0
  9
$PUCSORGFRONT
 10
0.0
 20
0.0
 30
0.0
  9
$PUCSORGBACK
 10
0.0
 20
0.0
 30
0.0
  9
$USERI1
 70
     0
  9
$USERI2
 70
     0
  9
$USERI3
 70
     0
  9
$USERI4
 70
     0
  9
$USERI5
 70
     0
  9
$USERR1
 40
0.0
  9
$USERR2
 40
0.0
  9
$USERR3
 40
0.0
  9
$USERR4
 40
0.0
  9
$USERR5
 40
0.0
  9
$WORLDVIEW
 70
     1
  9
$SHADEDGE
 70
     3
  9
$SHADEDIF
 70
    70
  9
$TILEMODE
 70
     1
  9
$MAXACTVP
 70
    64
  9
$PINSBASE
 10
0.0
 20
0.0
 30
0.0
  9
$PLIMCHECK
 70
     0
  9
$PEXTMIN
 10
0.0
 20
0.0
 30
0.0
  9
$PEXTMAX
 10
1189.0
 20
841.0
 30
0.0
  9
$PLIMMIN
 10
0.0
 20
0.0
  9
$PLIMMAX
 10
1189.0
 20
841.0
  9
$UNITMODE
 70
     0
  9
$VISRETAIN
 70
     1
  9
$PLINEGEN
 70
     0
  9
$PSLTSCALE
 70
     1
  9
$TREEDEPTH
 70
  3020
  9
$CMLSTYLE
  2
Standard
  9
$CMLJUST
 70
     0
  9
$CMLSCALE
 40
1.0
  9
$PROXYGRAPHICS
 70
     1
  9
$MEASUREMENT
 70
     1
  9
$CELWEIGHT
370
    -1
  9
$ENDCAPS
280
     0
  9
$JOINSTYLE
280
     0
  9
$LWDISPLAY
290
     0
  9
$INSUNITS
 70
     4
  9
$HYPERLINKBASE
  1

  9
$STYLESHEET
  1

  9
$XEDIT
290
     1
  9
$CEPSNTYPE
380
     0
  9
$PSTYLEMODE
290
     1
  9
$FINGERPRINTGUID
  2
{FCF2E685-DCB2-4A0A-B017-0DDC109A666B}
  9
$VERSIONGUID
  2
{FAEB1C32-E019-11D5-929B-00C0DF256EC4}
  9
$EXTNAMES
290
     1
  9
$PSVPSCALE
 40
0.0
  9
$OLESTARTUP
290
     0
  9
$SORTENTS
280
   127
  9
$INDEXCTL
280
     0
  9
$HIDETEXT
280
     1
  9
$XCLIPFRAME
290
     0
  9
$HALOGAP
280
     0
  9
$OBSCOLOR
 70
   257
  9
$OBSLTYPE
280
     0
  9
$INTERSECTIONDISPLAY
280
     0
  9
$INTERSECTIONCOLOR
 70
   257
  9
$DIMASSOC
280
     1
  9
$PROJECTNAME
  1

  9
$CAMERADISPLAY
290
     0
  9
$LENSLENGTH
 40
50.0
  9
$CAMERAHEIGHT
 40
0.0
  9
$STEPSPERSEC
 40
2.0
  9
$STEPSIZE
 40
6.0
  9
$3DDWFPREC
 40
2.0
  9
$PSOLWIDTH
 40
0.25
  9
$PSOLHEIGHT
 40
4.0
  9
$LOFTANG1
 40
1.570796326794897
  9
$LOFTANG2
 40
1.570796326794897
  9
$LOFTMAG1
 40
0.0
  9
$LOFTMAG2
 40
0.0
  9
$LOFTPARAM
 70
     7
  9
$LOFTNORMALS
280
     1
  9
$LATITUDE
 40
37.795
  9
$LONGITUDE
 40
-122.394
  9
$NORTHDIRECTION
 40
0.0
  9
$TIMEZONE
 70
 -8000
  9
$LIGHTGLYPHDISPLAY
280
     1
  9
$TILEMODELIGHTSYNCH
280
     1
  9
$SOLIDHIST
280
     1
  9
$SHOWHIST
280
     1
  9
$DWFFRAME
280
     2
  9
$DGNFRAME
280
     2
  9
$REALWORLDSCALE
290
     1
  9
$INTERFERECOLOR
 62
   256
  9
$CSHADOW
280
     0
  9
$SHADOWPLANELOCATION
 40
0.0
  0
ENDSEC
  0
SECTION
  2
CLASSES
  0
CLASS
  1
ACDBDICTIONARYWDFLT
  2
AcDbDictionaryWithDefault
  3
ObjectDBX Classes
 90
        0
 91
        4
280
     0
281
     0
  0
CLASS
  1
VISUALSTYLE
  2
AcDbVisualStyle
  3
ObjectDBX Classes
 90
     4095
 91
        4
280
     0
281
     0
  0
CLASS
  1
MATERIAL
  2
AcDbMaterial
  3
ObjectDBX Classes
 90
     1153
 91
        4
280
     0
281
     0
  0
ENDSEC
  0
SECTION
  2
TABLES
  0
TABLE
  2
VPORT
  5
8
330
0
100
AcDbSymbolTable
 70
     1
  0
VPORT
  5
29
330
8
100
AcDbSymbolTableRecord
100
AcDbViewportTableRecord
  2
*Active
 70
     0
 10
0.0
 20
0.0
 11
1.0
 21
1.0
 12
10.42990654205607
 22
4.5
 13
0.0
 23
0.0
 14
0.5
 24
0.5
 15
0.5
 25
0.5
 16
0.0
 26
0.0
 36
1.0
 17
0.0
 27
0.0
 37
0.0
 40
9.0
 41
1.972972972850329
 42
50.0
 43
0.0
 44
0.0
 50
0.0
 51
0.0
 71
     0
 72
   100
 73
     1
 74
     3
 75
     0
 76
     0
 77
     0
 78
     0
281
     0
 65
     1
110
0.0
120
0.0
130
0.0
111
1.0
121
0.0
131
0.0
112
0.0
122
1.0
132
0.0
 79
     0
146
0.0
 60
     3
 61
     5
292
     1
282
     1
141
0.0
142
0.0
 63
   250
  0
ENDTAB
  0
TABLE
  2
LTYPE
  5
5
330
0
100
AcDbSymbolTable
 70
     9
  0
LTYPE
  5
14
330
5
100
AcDbSymbolTableRecord
100
AcDbLinetypeTableRecord
  2
ByBlock
 70
     0
  3

 72
    65
 73
     0
 40
0.0
  0
LTYPE
  5
15
330
5
100
AcDbSymbolTableRecord
100
AcDbLinetypeTableRecord
  2
ByLayer
 70
     0
  3

 72
    65
 73
     0
 40
0.0
  0
LTYPE
  5
16
330
5
100
AcDbSymbolTableRecord
100
AcDbLinetypeTableRecord
  2
Continuous
 70
     0
  3
Solid line
 72
    65
 73
     0
 40
0.0
  0
LTYPE
  5
8E
330
5
100
AcDbSymbolTableRecord
100
AcDbLinetypeTableRecord
  2
DOT
 70
     0
  3
DOT
 72
    65
 73
     2
 40
4.0
 49
6.0
 74
     0
 49
-2.0
 74
     0
  0
LTYPE
  5
8F
330
5
100
AcDbSymbolTableRecord
100
AcDbLinetypeTableRecord
  2
HIDDEN
 70
     0
  3
HIDDEN
 72
    65
 73
     2
 40
4.2
 49
8.4
 74
     0
 49
-4.2
 74
     0
  0
LTYPE
  5
90
330
5
100
AcDbSymbolTableRecord
100
AcDbLinetypeTableRecord
  2
DASHDOT
 70
     0
  3
DASHDOT
 72
    65
 73
     4
 40
14.5
 49
30.0
 74
     0
 49
-9.0
 74
     0
 49
2.5
 74
     0
 49
-9.0
 74
     0
  0
LTYPE
  5
91
330
5
100
AcDbSymbolTableRecord
100
AcDbLinetypeTableRecord
  2
PHANTOM
 70
     0
  3
PHANTOM
 72
    65
 73
     6
 40
12.0
 49
30.0
 74
     0
 49
-9.0
 74
     0
 49
2.5
 74
     0
 49
-5.0
 74
     0
 49
2.5
 74
     0
 49
-9.0
 74
     0
  0
LTYPE
  5
92
330
5
100
AcDbSymbolTableRecord
100
AcDbLinetypeTableRecord
  2
ACAD_ISO14W100
 70
     0
  3
ACAD_ISO14W100
 72
    65
 73
     8
 40
1.5
 49
12.0
 74
     0
 49
-3.0
 74
     0
 49
0.5
 74
     0
 49
-3.0
 74
     0
 49
0.5
 74
     0
 49
-3.0
 74
     0
 49
0.5
 74
     0
 49
-3.0
 74
     0
  0
LTYPE
  5
93
330
5
100
AcDbSymbolTableRecord
100
AcDbLinetypeTableRecord
  2
ACAD_ISO06W100
 70
     0
  3
ACAD_ISO06W100
 72
    65
 73
     8
 40
13.5
 49
24.0
 74
     0
 49
-3.0
 74
     0
 49
0.5
 74
     0
 49
-3.0
 74
     0
 49
0.5
 74
     0
 49
-3.0
 74
     0
 49
0.5
 74
     0
 49
-3.0
 74
     0
  0
LTYPE
  5
94
330
5
100
AcDbSymbolTableRecord
100
AcDbLinetypeTableRecord
  2
ACAD_ISO11W100
 70
     0
  3
ACAD_ISO11W100
 72
    65
 73
     6
 40
15.5
 49
12.0
 74
     0
 49
-3.0
 74
     0
 49
12.0
 74
     0
 49
-3.0
 74
     0
 49
0.5
 74
     0
 49
-3.0
 74
     0
  0
LTYPE
  5
95
330
5
100
AcDbSymbolTableRecord
100
AcDbLinetypeTableRecord
  2
ACAD_ISO13W100
 70
     0
  3
ACAD_ISO13W100
 72
    65
 73
     8
 40
13.0
 49
12.0
 74
     0
 49
-3.0
 74
     0
 49
12.0
 74
     0
 49
-3.0
 74
     0
 49
0.5
 74
     0
 49
-3.0
 74
     0
 49
0.5
 74
     0
 49
-3.0
 74
     0
  0
ENDTAB
  0
TABLE
  2
LAYER
  5
2
330
0
100
AcDbSymbolTable
 70
    22
  0
LAYER
  5
10
330
2
100
AcDbSymbolTableRecord
100
AcDbLayerTableRecord
  2
0
 70
     0
 62
     7
  6
Continuous
370
    -3
390
F
347
3E
  0
LAYER
  5
96
330
2
100
AcDbSymbolTableRecord
100
AcDbLayerTableRecord
  2
1
 70
     0
 62
     7
  6
Continuous
370
     9
390
F
347
3E
  0
LAYER
  5
97
330
2
100
AcDbSymbolTableRecord
100
AcDbLayerTableRecord
  2
2
 70
     0
 62
   134
  6
Continuous
370
     9
390
F
347
3E
  0
LAYER
  5
98
330
2
100
AcDbSymbolTableRecord
100
AcDbLayerTableRecord
  2
3
 70
     0
 62
   214
  6
Continuous
370
     9
390
F
347
3E
  0
LAYER
  5
99
330
2
100
AcDbSymbolTableRecord
100
AcDbLayerTableRecord
  2
4
 70
     0
 62
    54
  6
Continuous
370
     9
390
F
347
3E
  0
LAYER
  5
9A
330
2
100
AcDbSymbolTableRecord
100
AcDbLayerTableRecord
  2
5
 70
     0
 62
    94
  6
Continuous
370
     9
390
F
347
3E
  0
LAYER
  5
9B
330
2
100
AcDbSymbolTableRecord
100
AcDbLayerTableRecord
  2
6
 70
     0
 62
    14
  6
Continuous
370
     9
390
F
347
3E
  0
LAYER
  5
9C
330
2
100
AcDbSymbolTableRecord
100
AcDbLayerTableRecord
  2
7
 70
     0
 62
     4
  6
Continuous
370
     9
390
F
347
3E
  0
LAYER
  5
9D
330
2
100
AcDbSymbolTableRecord
100
AcDbLayerTableRecord
  2
8
 70
     0
 62
     6
  6
Continuous
370
     9
390
F
347
3E
  0
LAYER
  5
9E
330
2
100
AcDbSymbolTableRecord
100
AcDbLayerTableRecord
  2
9
 70
     0
 62
     2
  6
Continuous
370
     9
390
F
347
3E
  0
LAYER
  5
9F
330
2
100
AcDbSymbolTableRecord
100
AcDbLayerTableRecord
  2
10
 70
     0
 62
     3
  6
Continuous
370
     9
390
F
347
3E
  0
LAYER
  5
A0
330
2
100
AcDbSymbolTableRecord
100
AcDbLayerTableRecord
  2
11
 70
     0
 62
   251
  6
Continuous
370
     9
390
F
347
3E
  0
LAYER
  5
A1
330
2
100
AcDbSymbolTableRecord
100
AcDbLayerTableRecord
  2
12
 70
     0
 62
   136
  6
Continuous
370
     9
390
F
347
3E
  0
LAYER
  5
A2
330
2
100
AcDbSymbolTableRecord
100
AcDbLayerTableRecord
  2
13
 70
     0
 62
   216
  6
Continuous
370
     9
390
F
347
3E
  0
LAYER
  5
A3
330
2
100
AcDbSymbolTableRecord
100
AcDbLayerTableRecord
  2
14
 70
     0
 62
    56
  6
Continuous
370
     9
390
F
347
3E
  0
LAYER
  5
A4
330
2
100
AcDbSymbolTableRecord
100
AcDbLayerTableRecord
  2
15
 70
     0
 62
    96
  6
Continuous
370
     9
390
F
347
3E
  0
LAYER
  5
A5
330
2
100
AcDbSymbolTableRecord
100
AcDbLayerTableRecord
  2
16
 70
     0
 62
    16
  6
Continuous
370
     9
390
F
347
3E
  0
LAYER
  5
A6
330
2
100
AcDbSymbolTableRecord
100
AcDbLayerTableRecord
  2
17
 70
     0
 62
   132
  6
Continuous
370
     9
390
F
347
3E
  0
LAYER
  5
A7
330
2
100
AcDbSymbolTableRecord
100
AcDbLayerTableRecord
  2
18
 70
     0
 62
   212
  6
Continuous
370
     9
390
F
347
3E
  0
LAYER
  5
A8
330
2
100
AcDbSymbolTableRecord
100
AcDbLayerTableRecord
  2
19
 70
     0
 62
    52
  6
Continuous
370
     9
390
F
347
3E
  0
LAYER
  5
A9
330
2
100
AcDbSymbolTableRecord
100
AcDbLayerTableRecord
  2
20
 70
     0
 62
   250
  6
Continuous
370
     9
390
F
347
3E
  0
LAYER
  5
AA
330
2
100
AcDbSymbolTableRecord
100
AcDbLayerTableRecord
  2
128
 70
     0
 62
     7
  6
Continuous
370
     9
390
F
347
3E
  0
ENDTAB
  0
TABLE
  2
STYLE
  5
3
330
0
100
AcDbSymbolTable
 70
     2
  0
STYLE
  5
11
330
3
100
AcDbSymbolTableRecord
100
AcDbTextStyleTableRecord
  2
Standard
 70
     0
 40
0.0
 41
1.0
 50
0.0
 71
     0
 42
5.0
  3
txt
  4
bigfont
  0
STYLE
  5
41
330
3
100
AcDbSymbolTableRecord
100
AcDbTextStyleTableRecord
  2
T_STANDARD
 70
     4
 40
10.0
 41
1.0
 50
0.0
 71
     0
 42
10.0
  3
txt
  4
bigfont
  0
ENDTAB
  0
TABLE
  2
VIEW
  5
6
330
0
100
AcDbSymbolTable
 70
     0
  0
ENDTAB
  0
TABLE
  2
UCS
  5
7
330
0
100
AcDbSymbolTable
 70
     0
  0
ENDTAB
  0
TABLE
  2
APPID
  5
9
330
0
100
AcDbSymbolTable
 70
     2
  0
APPID
  5
12
330
9
100
AcDbSymbolTableRecord
100
AcDbRegAppTableRecord
  2
ACAD
 70
     0
  0
APPID
  5
40
330
9
100
AcDbSymbolTableRecord
100
AcDbRegAppTableRecord
  2
ODA
 70
     0
  0
ENDTAB
  0
TABLE
  2
DIMSTYLE
  5
A
330
0
100
AcDbSymbolTable
 70
     1
100
AcDbDimStyleTable
  0
DIMSTYLE
105
27
330
A
100
AcDbSymbolTableRecord
100
AcDbDimStyleTableRecord
  2
Standard
 70
     0
178
     0
340
11
  0
ENDTAB
  0
TABLE
  2
BLOCK_RECORD
  5
1
330
0
100
AcDbSymbolTable
 70
    16
  0
BLOCK_RECORD
  5
1F
330
1
100
AcDbSymbolTableRecord
100
AcDbBlockTableRecord
  2
*Model_Space
340
22
 70
     0
280
     1
281
     0
  0
BLOCK_RECORD
  5
1B
330
1
100
AcDbSymbolTableRecord
100
AcDbBlockTableRecord
  2
*Paper_Space
340
1E
 70
     0
280
     1
281
     0
  0
BLOCK_RECORD
  5
23
330
1
100
AcDbSymbolTableRecord
100
AcDbBlockTableRecord
  2
*Paper_Space0
340
26
 70
     0
280
     1
281
     0
  0
BLOCK_RECORD
  5
42
330
1
100
AcDbSymbolTableRecord
100
AcDbBlockTableRecord
  2
_ORIGIN
340
0
 70
     0
280
     1
281
     0
  0
BLOCK_RECORD
  5
47
330
1
100
AcDbSymbolTableRecord
100
AcDbBlockTableRecord
  2
_DOTBLANK
340
0
 70
     0
280
     1
281
     0
  0
BLOCK_RECORD
  5
4C
330
1
100
AcDbSymbolTableRecord
100
AcDbBlockTableRecord
  2
_DOT
340
0
 70
     0
280
     1
281
     0
  0
BLOCK_RECORD
  5
51
330
1
100
AcDbSymbolTableRecord
100
AcDbBlockTableRecord
  2
_OPEN
340
0
 70
     0
280
     1
281
     0
  0
BLOCK_RECORD
  5
57
330
1
100
AcDbSymbolTableRecord
100
AcDbBlockTableRecord
  2
_CLOSED
340
0
 70
     0
280
     1
281
     0
  0
BLOCK_RECORD
  5
5E
330
1
100
AcDbSymbolTableRecord
100
AcDbBlockTableRecord
  2
_CLOSEDBLANK
340
0
 70
     0
280
     1
281
     0
  0
BLOCK_RECORD
  5
64
330
1
100
AcDbSymbolTableRecord
100
AcDbBlockTableRecord
  2
_ARROWFILLED
340
0
 70
     0
280
     1
281
     0
  0
BLOCK_RECORD
  5
68
330
1
100
AcDbSymbolTableRecord
100
AcDbBlockTableRecord
  2
_BOXBLANK
340
0
 70
     0
280
     1
281
     0
  0
BLOCK_RECORD
  5
70
330
1
100
AcDbSymbolTableRecord
100
AcDbBlockTableRecord
  2
_BOXFILLED
340
0
 70
     0
280
     1
281
     0
  0
BLOCK_RECORD
  5
75
330
1
100
AcDbSymbolTableRecord
100
AcDbBlockTableRecord
  2
_INTEGRAL
340
0
 70
     0
280
     1
281
     0
  0
BLOCK_RECORD
  5
7A
330
1
100
AcDbSymbolTableRecord
100
AcDbBlockTableRecord
  2
_OBLIQUE
340
0
 70
     0
280
     1
281
     0
  0
BLOCK_RECORD
  5
7E
330
1
100
AcDbSymbolTableRecord
100
AcDbBlockTableRecord
  2
_NONE
340
0
 70
     0
280
     1
281
     0
  0
BLOCK_RECORD
  5
81
330
1
100
AcDbSymbolTableRecord
100
AcDbBlockTableRecord
  2
MARK_OPEN
340
0
 70
     0
280
     1
281
     0
  0
BLOCK_RECORD
  5
86
330
1
100
AcDbSymbolTableRecord
100
AcDbBlockTableRecord
  2
MARK_ORIGIN
340
0
 70
     0
280
     1
281
     0
  0
BLOCK_RECORD
  5
8A
330
1
100
AcDbSymbolTableRecord
100
AcDbBlockTableRecord
  2
MARK_DOT
340
0
 70
     0
280
     1
281
     0
  0
ENDTAB
  0
ENDSEC
  0
SECTION
  2
BLOCKS
  0
BLOCK
  5
20
330
1F
100
AcDbEntity
  8
0
100
AcDbBlockBegin
  2
*Model_Space
 70
     0
 10
0.0
 20
0.0
 30
0.0
  3
*Model_Space
  1

  0
ENDBLK
  5
21
330
1F
100
AcDbEntity
  8
0
100
AcDbBlockEnd
  0
BLOCK
  5
1C
330
1B
100
AcDbEntity
 67
     1
  8
0
100
AcDbBlockBegin
  2
*Paper_Space
 70
     0
 10
0.0
 20
0.0
 30
0.0
  3
*Paper_Space
  1

  0
ENDBLK
  5
1D
330
1B
100
AcDbEntity
 67
     1
  8
0
100
AcDbBlockEnd
  0
BLOCK
  5
24
330
23
100
AcDbEntity
  8
0
100
AcDbBlockBegin
  2
*Paper_Space0
 70
     0
 10
0.0
 20
0.0
 30
0.0
  3
*Paper_Space0
  1

  0
ENDBLK
  5
25
330
23
100
AcDbEntity
  8
0
100
AcDbBlockEnd
  0
BLOCK
  5
45
330
42
100
AcDbEntity
  8
0
100
AcDbBlockBegin
  2
_ORIGIN
 70
     0
 10
0.0
 20
0.0
 30
0.0
  3
_ORIGIN
  1

  0
CIRCLE
  5
43
330
42
100
AcDbEntity
  8
0
100
AcDbCircle
 10
0.0
 20
0.0
 30
0.0
 40
0.5
  0
LINE
  5
44
330
42
100
AcDbEntity
  8
0
100
AcDbLine
 10
0.0
 20
0.0
 30
0.0
 11
-1.0
 21
0.0
 31
0.0
  0
ENDBLK
  5
46
330
42
100
AcDbEntity
  8
0
100
AcDbBlockEnd
  0
BLOCK
  5
4A
330
47
100
AcDbEntity
  8
0
100
AcDbBlockBegin
  2
_DOTBLANK
 70
     0
 10
0.0
 20
0.0
 30
0.0
  3
_DOTBLANK
  1

  0
CIRCLE
  5
48
330
47
100
AcDbEntity
  8
0
100
AcDbCircle
 10
0.0
 20
0.0
 30
0.0
 40
0.5
  0
LINE
  5
49
330
47
100
AcDbEntity
  8
0
100
AcDbLine
 10
-0.5
 20
0.0
 30
0.0
 11
-1.0
 21
0.0
 31
0.0
  0
ENDBLK
  5
4B
330
47
100
AcDbEntity
  8
0
100
AcDbBlockEnd
  0
BLOCK
  5
4F
330
4C
100
AcDbEntity
  8
0
100
AcDbBlockBegin
  2
_DOT
 70
     0
 10
0.0
 20
0.0
 30
0.0
  3
_DOT
  1

  0
LWPOLYLINE
  5
4D
330
4C
100
AcDbEntity
  8
0
100
AcDbPolyline
 90
        2
 70
     1
 43
0.5
 10
-0.25
 20
0.0
 42
1.0
 10
0.25
 20
0.0
 42
1.0
  0
LINE
  5
4E
330
4C
100
AcDbEntity
  8
0
100
AcDbLine
 10
-0.5
 20
0.0
 30
0.0
 11
-1.0
 21
0.0
 31
0.0
  0
ENDBLK
  5
50
330
4C
100
AcDbEntity
  8
0
100
AcDbBlockEnd
  0
BLOCK
  5
55
330
51
100
AcDbEntity
  8
0
100
AcDbBlockBegin
  2
_OPEN
 70
     0
 10
0.0
 20
0.0
 30
0.0
  3
_OPEN
  1

  0
LINE
  5
52
330
51
100
AcDbEntity
  8
0
100
AcDbLine
 10
0.0
 20
0.0
 30
0.0
 11
-1.0
 21
0.1666666666666667
 31
0.0
  0
LINE
  5
53
330
51
100
AcDbEntity
  8
0
100
AcDbLine
 10
0.0
 20
0.0
 30
0.0
 11
-1.0
 21
-0.1666666666666667
 31
0.0
  0
LINE
  5
54
330
51
100
AcDbEntity
  8
0
100
AcDbLine
 10
0.0
 20
0.0
 30
0.0
 11
-1.0
 21
0.0
 31
0.0
  0
ENDBLK
  5
56
330
51
100
AcDbEntity
  8
0
100
AcDbBlockEnd
  0
BLOCK
  5
5C
330
57
100
AcDbEntity
  8
0
100
AcDbBlockBegin
  2
_CLOSED
 70
     0
 10
0.0
 20
0.0
 30
0.0
  3
_CLOSED
  1

  0
LINE
  5
58
330
57
100
AcDbEntity
  8
0
100
AcDbLine
 10
0.0
 20
0.0
 30
0.0
 11
-1.0
 21
0.1666666666666667
 31
0.0
  0
LINE
  5
59
330
57
100
AcDbEntity
  8
0
100
AcDbLine
 10
0.0
 20
0.0
 30
0.0
 11
-1.0
 21
-0.1666666666666667
 31
0.0
  0
LINE
  5
5A
330
57
100
AcDbEntity
  8
0
100
AcDbLine
 10
-1.0
 20
0.1666666666666667
 30
0.0
 11
-1.0
 21
-0.1666666666666667
 31
0.0
  0
LINE
  5
5B
330
57
100
AcDbEntity
  8
0
100
AcDbLine
 10
0.0
 20
0.0
 30
0.0
 11
-1.0
 21
0.0
 31
0.0
  0
ENDBLK
  5
5D
330
57
100
AcDbEntity
  8
0
100
AcDbBlockEnd
  0
BLOCK
  5
62
330
5E
100
AcDbEntity
  8
0
100
AcDbBlockBegin
  2
_CLOSEDBLANK
 70
     0
 10
0.0
 20
0.0
 30
0.0
  3
_CLOSEDBLANK
  1

  0
LINE
  5
5F
330
5E
100
AcDbEntity
  8
0
100
AcDbLine
 10
0.0
 20
0.0
 30
0.0
 11
-1.0
 21
0.1666666666666667
 31
0.0
  0
LINE
  5
60
330
5E
100
AcDbEntity
  8
0
100
AcDbLine
 10
0.0
 20
0.0
 30
0.0
 11
-1.0
 21
-0.1666666666666667
 31
0.0
  0
LINE
  5
61
330
5E
100
AcDbEntity
  8
0
100
AcDbLine
 10
-1.0
 20
0.1666666666666667
 30
0.0
 11
-1.0
 21
-0.1666666666666667
 31
0.0
  0
ENDBLK
  5
63
330
5E
100
AcDbEntity
  8
0
100
AcDbBlockEnd
  0
BLOCK
  5
66
330
64
100
AcDbEntity
  8
0
100
AcDbBlockBegin
  2
_ARROWFILLED
 70
     0
 10
0.0
 20
0.0
 30
0.0
  3
_ARROWFILLED
  1

  0
SOLID
  5
65
330
64
100
AcDbEntity
  8
0
100
AcDbTrace
 10
0.0
 20
0.0
 30
0.0
 11
-1.0
 21
-0.1666666666666667
 31
0.0
 12
-1.0
 22
0.1666666666666667
 32
0.0
 13
0.0
 23
0.0
 33
0.0
  0
ENDBLK
  5
67
330
64
100
AcDbEntity
  8
0
100
AcDbBlockEnd
  0
BLOCK
  5
6E
330
68
100
AcDbEntity
  8
0
100
AcDbBlockBegin
  2
_BOXBLANK
 70
     0
 10
0.0
 20
0.0
 30
0.0
  3
_BOXBLANK
  1

  0
LINE
  5
69
330
68
100
AcDbEntity
  8
0
100
AcDbLine
 10
-0.5
 20
-0.5
 30
0.0
 11
0.5
 21
-0.5
 31
0.0
  0
LINE
  5
6A
330
68
100
AcDbEntity
  8
0
100
AcDbLine
 10
0.5
 20
-0.5
 30
0.0
 11
0.5
 21
0.5
 31
0.0
  0
LINE
  5
6B
330
68
100
AcDbEntity
  8
0
100
AcDbLine
 10
0.5
 20
0.5
 30
0.0
 11
-0.5
 21
0.5
 31
0.0
  0
LINE
  5
6C
330
68
100
AcDbEntity
  8
0
100
AcDbLine
 10
-0.5
 20
0.5
 30
0.0
 11
-0.5
 21
-0.5
 31
0.0
  0
LINE
  5
6D
330
68
100
AcDbEntity
  8
0
100
AcDbLine
 10
-0.5
 20
0.0
 30
0.0
 11
-1.0
 21
0.0
 31
0.0
  0
ENDBLK
  5
6F
330
68
100
AcDbEntity
  8
0
100
AcDbBlockEnd
  0
BLOCK
  5
73
330
70
100
AcDbEntity
  8
0
100
AcDbBlockBegin
  2
_BOXFILLED
 70
     0
 10
0.0
 20
0.0
 30
0.0
  3
_BOXFILLED
  1

  0
SOLID
  5
71
330
70
100
AcDbEntity
  8
0
100
AcDbTrace
 10
-0.5
 20
0.5
 30
0.0
 11
0.5
 21
0.5
 31
0.0
 12
-0.5
 22
-0.5
 32
0.0
 13
0.5
 23
-0.5
 33
0.0
  0
LINE
  5
72
330
70
100
AcDbEntity
  8
0
100
AcDbLine
 10
-0.5
 20
0.0
 30
0.0
 11
-1.0
 21
0.0
 31
0.0
  0
ENDBLK
  5
74
330
70
100
AcDbEntity
  8
0
100
AcDbBlockEnd
  0
BLOCK
  5
78
330
75
100
AcDbEntity
  8
0
100
AcDbBlockBegin
  2
_INTEGRAL
 70
     0
 10
0.0
 20
0.0
 30
0.0
  3
_INTEGRAL
  1

  0
ARC
  5
76
330
75
100
AcDbEntity
  8
0
100
AcDbCircle
 10
0.444888
 20
-0.0913346
 30
0.0
 40
0.4541666
100
AcDbArc
 50
101.9999999999999
 51
167.9999999999998
  0
ARC
  5
77
330
75
100
AcDbEntity
  8
0
100
AcDbCircle
 10
-0.444888
 20
0.0913346
 30
0.0
 40
0.4541666
100
AcDbArc
 50
281.9999999999997
 51
347.9999999999997
  0
ENDBLK
  5
79
330
75
100
AcDbEntity
  8
0
100
AcDbBlockEnd
  0
BLOCK
  5
7C
330
7A
100
AcDbEntity
  8
0
100
AcDbBlockBegin
  2
_OBLIQUE
 70
     0
 10
0.0
 20
0.0
 30
0.0
  3
_OBLIQUE
  1

  0
LINE
  5
7B
330
7A
100
AcDbEntity
  8
0
100
AcDbLine
 10
-0.5
 20
-0.5
 30
0.0
 11
0.5
 21
0.5
 31
0.0
  0
ENDBLK
  5
7D
330
7A
100
AcDbEntity
  8
0
100
AcDbBlockEnd
  0
BLOCK
  5
7F
330
7E
100
AcDbEntity
  8
0
100
AcDbBlockBegin
  2
_NONE
 70
     0
 10
0.0
 20
0.0
 30
0.0
  3
_NONE
  1

  0
ENDBLK
  5
80
330
7E
100
AcDbEntity
  8
0
100
AcDbBlockEnd
  0
BLOCK
  5
84
330
81
100
AcDbEntity
  8
0
100
AcDbBlockBegin
  2
MARK_OPEN
 70
     0
 10
0.0
 20
0.0
 30
0.0
  3
MARK_OPEN
  1

  0
LINE
  5
82
330
81
100
AcDbEntity
  8
0
100
AcDbLine
 10
0.0
 20
0.0
 30
0.0
 11
-1.0
 21
0.1666666666666667
 31
0.0
  0
LINE
  5
83
330
81
100
AcDbEntity
  8
0
100
AcDbLine
 10
0.0
 20
0.0
 30
0.0
 11
-1.0
 21
-0.1666666666666667
 31
0.0
  0
ENDBLK
  5
85
330
81
100
AcDbEntity
  8
0
100
AcDbBlockEnd
  0
BLOCK
  5
88
330
86
100
AcDbEntity
  8
0
100
AcDbBlockBegin
  2
MARK_ORIGIN
 70
     0
 10
0.0
 20
0.0
 30
0.0
  3
MARK_ORIGIN
  1

  0
CIRCLE
  5
87
330
86
100
AcDbEntity
  8
0
100
AcDbCircle
 10
0.0
 20
0.0
 30
0.0
 40
0.5
  0
ENDBLK
  5
89
330
86
100
AcDbEntity
  8
0
100
AcDbBlockEnd
  0
BLOCK
  5
8C
330
8A
100
AcDbEntity
  8
0
100
AcDbBlockBegin
  2
MARK_DOT
 70
     0
 10
0.0
 20
0.0
 30
0.0
  3
MARK_DOT
  1

  0
LWPOLYLINE
  5
8B
330
8A
100
AcDbEntity
  8
0
100
AcDbPolyline
 90
        2
 70
     1
 43
0.5
 10
-0.25
 20
0.0
 42
1.0
 10
0.25
 20
0.0
 42
1.0
  0
ENDBLK
  5
8D
330
8A
100
AcDbEntity
  8
0
100
AcDbBlockEnd
  0
ENDSEC
  0
SECTION
  2
ENTITIES
  0
LINE
  5
AB
330
1F
100
AcDbEntity
  8
1
  6
Continuous
 62
     7
370
     9
100
AcDbLine
 10
44.39035769828928
 20
59.52760497667185
 30
0.0
 11
44.39035769828928
 21
58.50965578424075
 31
0.0
  0
LINE
  5
AC
330
1F
100
AcDbEntity
  8
1
  6
Continuous
 62
     7
370
     9
100
AcDbLine
 10
46.39035769828928
 20
61.52760497667184
 30
0.0
 11
47.40830689072038
 21
61.52760497667184
 31
0.0
  0
LINE
  5
AD
330
1F
100
AcDbEntity
  8
1
  6
Continuous
 62
     7
370
     9
100
AcDbLine
 10
42.39035769828928
 20
73.02760497667185
 30
0.0
 11
47.40830689072038
 21
73.02760497667185
 31
0.0
  0
LINE
  5
AE
330
1F
100
AcDbEntity
  8
1
  6
Continuous
 62
     7
370
     9
100
AcDbLine
 10
49.14035769828928
 20
74.02760497667185
 30
0.0
 11
52.3516828444626
 21
74.02760497667185
 31
0.0
  0
LINE
  5
AF
330
1F
100
AcDbEntity
  8
1
  6
Continuous
 62
     7
370
     9
100
AcDbLine
 10
52.64035769828929
 20
74.52760497667184
 30
0.0
 11
52.3516828444626
 21
74.02760497667184
 31
0.0
  0
LINE
  5
B0
330
1F
100
AcDbEntity
  8
1
  6
Continuous
 62
     7
370
     9
100
AcDbLine
 10
45.89035769828928
 20
53.27760497667185
 30
0.0
 11
45.89035769828928
 21
51.07760497667184
 31
0.0
  0
LINE
  5
B1
330
1F
100
AcDbEntity
  8
1
  6
Continuous
 62
     7
370
     9
100
AcDbLine
 10
55.64035769828928
 20
73.72760497667186
 30
0.0
 11
55.64035769828928
 21
60.82760497667184
 31
0.0
  0
LINE
  5
B2
330
1F
100
AcDbEntity
  8
1
  6
Continuous
 62
     7
370
     9
100
AcDbLine
 10
32.89035769828922
 20
58.50965578424075
 30
0.0
 11
31.89035769828924
 21
56.77760497667188
 31
0.0
  0
LINE
  5
B3
330
1F
100
AcDbEntity
  8
1
  6
Continuous
 62
     7
370
     9
100
AcDbLine
 10
44.39035769828931
 20
58.50965578424075
 30
0.0
 11
45.39035769828931
 21
56.77760497667185
 31
0.0
  0
LINE
  5
B4
330
1F
100
AcDbEntity
  8
1
  6
Continuous
 62
     7
370
     9
100
AcDbLine
 10
32.19035763085434
 20
50.27760497667185
 30
0.0
 11
45.09035769828928
 21
50.27760497667185
 31
0.0
  0
LINE
  5
B5
330
1F
100
AcDbEntity
  8
1
  6
Continuous
 62
     7
370
     9
100
AcDbLine
 10
45.39035769828928
 20
56.77760497667185
 30
0.0
 11
45.39035769828928
 21
53.56627983049853
 31
0.0
  0
LINE
  5
B6
330
1F
100
AcDbEntity
  8
1
  6
Continuous
 62
     7
370
     9
100
AcDbLine
 10
31.39035769828928
 20
53.27760497667185
 30
0.0
 11
31.39035769828928
 21
51.07760497667185
 31
0.0
  0
LINE
  5
B7
330
1F
100
AcDbEntity
  8
1
  6
Continuous
 62
     7
370
     9
100
AcDbLine
 10
52.64035769828929
 20
74.52760497667185
 30
0.0
 11
54.84035769828928
 21
74.52760497667185
 31
0.0
  0
LINE
  5
B8
330
1F
100
AcDbEntity
  8
1
  6
Continuous
 62
     7
370
     9
100
AcDbLine
 10
52.64035769828929
 20
60.02760497667184
 30
0.0
 11
54.84035769828928
 21
60.02760497667184
 31
0.0
  0
LINE
  5
B9
330
1F
100
AcDbEntity
  8
1
  6
Continuous
 62
     7
370
     9
100
AcDbLine
 10
47.4083068907204
 20
73.02760497667184
 30
0.0
 11
49.14035769828928
 21
74.02760497667184
 31
0.0
  0
LINE
  5
BA
330
1F
100
AcDbEntity
  8
1
  6
Continuous
 62
     7
370
     9
100
AcDbLine
 10
45.89035769828932
 20
53.27760497667202
 30
0.0
 11
45.39035769828934
 21
53.56627983049867
 31
0.0
  0
LINE
  5
BB
330
1F
100
AcDbEntity
  8
1
  6
Continuous
 62
     7
370
     9
100
AcDbLine
 10
47.40830689072041
 20
61.52760497667188
 30
0.0
 11
49.14035769828929
 21
60.52760497667188
 31
0.0
  0
LINE
  5
BC
330
1F
100
AcDbEntity
  8
1
  6
Continuous
 62
     7
370
     9
100
AcDbLine
 10
49.14035769828928
 20
60.52760497667184
 30
0.0
 11
52.3516828444626
 21
60.52760497667184
 31
0.0
  0
LINE
  5
BD
330
1F
100
AcDbEntity
  8
1
  6
Continuous
 62
     7
370
     9
100
AcDbLine
 10
52.64035769828928
 20
60.02760497667185
 30
0.0
 11
52.3516828444626
 21
60.52760497667184
 31
0.0
  0
LINE
  5
BE
330
1F
100
AcDbEntity
  8
1
  6
Continuous
 62
     7
370
     9
100
AcDbLine
 10
31.39035769828928
 20
53.27760497667185
 30
0.0
 11
31.89035769828928
 21
53.56627983049853
 31
0.0
  0
LINE
  5
BF
330
1F
100
AcDbEntity
  8
1
  6
Continuous
 62
     7
370
     9
100
AcDbLine
 10
32.89035769828928
 20
63.52760497667185
 30
0.0
 11
32.89035769828928
 21
58.50965578424075
 31
0.0
  0
LINE
  5
C0
330
1F
100
AcDbEntity
  8
1
  6
Continuous
 62
     7
370
     9
100
AcDbLine
 10
31.89035769828928
 20
56.77760497667185
 30
0.0
 11
31.89035769828928
 21
53.56627983049853
 31
0.0
  0
LINE
  5
C1
330
1F
100
AcDbEntity
  8
1
  6
Continuous
 62
     7
370
     9
100
AcDbLine
 10
52.64035769828928
 20
74.52760497667185
 30
0.0
 11
52.64035769828928
 21
60.02760497667184
 31
0.0
  0
LINE
  5
C2
330
1F
100
AcDbEntity
  8
1
  6
Continuous
 62
     7
370
     9
100
AcDbLine
 10
49.14035769828928
 20
74.02760497667185
 30
0.0
 11
49.14035769828928
 21
60.52760497667184
 31
0.0
  0
LINE
  5
C3
330
1F
100
AcDbEntity
  8
1
  6
Continuous
 62
     7
370
     9
100
AcDbLine
 10
47.40830689072041
 20
73.02760497667185
 30
0.0
 11
47.40830689072041
 21
61.52760497667187
 31
0.0
  0
LINE
  5
C4
330
1F
100
AcDbEntity
  8
1
  6
Continuous
 62
     7
370
     9
100
AcDbLine
 10
45.89035769828926
 20
53.27760497667188
 30
0.0
 11
31.39035769828928
 21
53.27760497667188
 31
0.0
  0
LINE
  5
C5
330
1F
100
AcDbEntity
  8
1
  6
Continuous
 62
     7
370
     9
100
AcDbLine
 10
45.39035769828928
 20
53.56627983049853
 30
0.0
 11
31.89035769828928
 21
53.56627983049853
 31
0.0
  0
LINE
  5
C6
330
1F
100
AcDbEntity
  8
1
  6
Continuous
 62
     7
370
     9
100
AcDbLine
 10
31.89035769828928
 20
56.77760497667185
 30
0.0
 11
45.39035769828928
 21
56.77760497667185
 31
0.0
  0
LINE
  5
C7
330
1F
100
AcDbEntity
  8
1
  6
Continuous
 62
     7
370
     9
100
AcDbLine
 10
44.39035769828931
 20
58.50965578424075
 30
0.0
 11
32.89035769828922
 21
58.50965578424075
 31
0.0
  0
LINE
  5
C8
330
1F
100
AcDbEntity
  8
1
  6
Continuous
 62
     7
370
     9
100
AcDbLine
 10
52.3516828444626
 20
74.02760497667185
 30
0.0
 11
52.3516828444626
 21
60.52760497667184
 31
0.0
  0
LINE
  5
C9
330
1F
100
AcDbEntity
  8
1
  6
Continuous
 62
     7
370
     9
100
AcDbLine
 10
44.39035769828928
 20
61.52760497667185
 30
0.0
 11
41.03160048765318
 21
64.88636218730795
 31
0.0
  0
ARC
  5
CA
330
1F
100
AcDbEntity
  8
1
  6
Continuous
 62
     7
370
     9
100
AcDbCircle
 10
42.39035769828928
 20
63.52760497667184
 30
0.0
 40
9.5
100
AcDbArc
 50
89.99999999999991
 51
179.9999999999998
  0
ARC
  5
CB
330
1F
100
AcDbEntity
  8
1
  6
Continuous
 62
     7
370
     9
100
AcDbCircle
 10
32.19035769828929
 20
51.07760497667185
 30
0.0
 40
0.8000000000000003
100
AcDbArc
 50
180.0000000000007
 51
270.0000000000007
  0
ARC
  5
CC
330
1F
100
AcDbEntity
  8
1
  6
Continuous
 62
     7
370
     9
100
AcDbCircle
 10
46.39035769828928
 20
59.52760497667184
 30
0.0
 40
2.0
100
AcDbArc
 50
89.99999999999991
 51
180.0
  0
ARC
  5
CD
330
1F
100
AcDbEntity
  8
1
  6
Continuous
 62
     7
370
     9
100
AcDbCircle
 10
45.09035769828928
 20
51.07760497667185
 30
0.0
 40
0.8000000000000007
100
AcDbArc
 50
269.9999999999998
 51
0.0
  0
ARC
  5
CE
330
1F
100
AcDbEntity
  8
1
  6
Continuous
 62
     7
370
     9
100
AcDbCircle
 10
54.84035769828928
 20
73.72760497667186
 30
0.0
 40
0.8000000000000007
100
AcDbArc
 50
0.0
 51
90.00000000000102
  0
ARC
  5
CF
330
1F
100
AcDbEntity
  8
1
  6
Continuous
 62
     7
370
     9
100
AcDbCircle
 10
54.84035769828928
 20
60.82760497667184
 30
0.0
 40
0.8000000000000007
100
AcDbArc
 50
269.9999999999998
 51
0.0
  0
ARC
  5
D0
330
1F
100
AcDbEntity
  8
1
  6
DASHDOT
 62
     7
370
     9
100
AcDbCircle
 10
44.39035769828925
 20
61.5276049766719
 30
0.0
 40
5.749999999999945
100
AcDbArc
 50
89.99999999999991
 51
180.0
  0
LINE
  5
D1
330
1F
100
AcDbEntity
  8
1
  6
Continuous
 62
     7
370
     9
100
AcDbLine
 10
90.14035769828928
 20
53.27760497667185
 30
0.0
 11
82.89035769828928
 21
53.27760497667185
 31
0.0
  0
LINE
  5
D2
330
1F
100
AcDbEntity
  8
1
  6
Continuous
 62
     7
370
     9
100
AcDbLine
 10
82.89035769828928
 20
53.56627983049853
 30
0.0
 11
76.14035769828928
 21
53.56627983049853
 31
0.0
  0
LINE
  5
D3
330
1F
100
AcDbEntity
  8
1
  6
Continuous
 62
     7
370
     9
100
AcDbLine
 10
82.89035769828928
 20
53.27760497667185
 30
0.0
 11
75.64035769828928
 21
53.27760497667185
 31
0.0
  0
LINE
  5
D4
330
1F
100
AcDbEntity
  8
1
  6
Continuous
 62
     7
370
     9
100
AcDbLine
 10
89.64035769828928
 20
53.56627983049853
 30
0.0
 11
82.89035769828928
 21
53.56627983049853
 31
0.0
  0
LINE
  5
D5
330
1F
100
AcDbEntity
  8
1
  6
Continuous
 62
     7
370
     9
100
AcDbLine
 10
75.64035769828928
 20
53.27760497667185
 30
0.0
 11
75.64035769828928
 21
51.07760497667185
 31
0.0
  0
LINE
  5
D6
330
1F
100
AcDbEntity
  8
1
  6
Continuous
 62
     7
370
     9
100
AcDbLine
 10
88.64035769828934
 20
58.50965578424073
 30
0.0
 11
89.64035769828934
 21
56.77760497667185
 31
0.0
  0
LINE
  5
D7
330
1F
100
AcDbEntity
  8
1
  6
Continuous
 62
     7
370
     9
100
AcDbLine
 10
89.64035769828928
 20
56.77760497667185
 30
0.0
 11
76.14035769828928
 21
56.77760497667185
 31
0.0
  0
LINE
  5
D8
330
1F
100
AcDbEntity
  8
1
  6
Continuous
 62
     7
370
     9
100
AcDbLine
 10
77.14035769828928
 20
62.86172454350792
 30
0.0
 11
77.14035769828928
 21
58.50965578424072
 31
0.0
  0
LINE
  5
D9
330
1F
100
AcDbEntity
  8
1
  6
Continuous
 62
     7
370
     9
100
AcDbLine
 10
88.64035769828928
 20
58.50965578424072
 30
0.0
 11
77.14035769828928
 21
58.50965578424072
 31
0.0
  0
LINE
  5
DA
330
1F
100
AcDbEntity
  8
1
  6
Continuous
 62
     7
370
     9
100
AcDbLine
 10
90.14035769828928
 20
53.27760497667185
 30
0.0
 11
90.14035769828928
 21
51.07760497667185
 31
0.0
  0
LINE
  5
DB
330
1F
100
AcDbEntity
  8
1
  6
Continuous
 62
     7
370
     9
100
AcDbLine
 10
77.14035769828928
 20
58.50965578424075
 30
0.0
 11
76.14035769828928
 21
56.77760497667185
 31
0.0
  0
LINE
  5
DC
330
1F
100
AcDbEntity
  8
1
  6
Continuous
 62
     7
370
     9
100
AcDbLine
 10
89.34035769828932
 20
50.27760497667185
 30
0.0
 11
76.44035769828929
 21
50.27760497667185
 31
0.0
  0
LINE
  5
DD
330
1F
100
AcDbEntity
  8
1
  6
Continuous
 62
     7
370
     9
100
AcDbLine
 10
76.14035769828928
 20
56.77760497667185
 30
0.0
 11
76.14035769828928
 21
53.56627983049853
 31
0.0
  0
LINE
  5
DE
330
1F
100
AcDbEntity
  8
1
  6
Continuous
 62
     7
370
     9
100
AcDbLine
 10
75.64035769828917
 20
53.27760497667202
 30
0.0
 11
76.14035769828917
 21
53.5662798304987
 31
0.0
  0
LINE
  5
DF
330
1F
100
AcDbEntity
  8
1
  6
Continuous
 62
     7
370
     9
100
AcDbLine
 10
90.14035769828925
 20
53.27760497667185
 30
0.0
 11
89.64035769828922
 21
53.56627983049856
 31
0.0
  0
LINE
  5
E0
330
1F
100
AcDbEntity
  8
1
  6
Continuous
 62
     7
370
     9
100
AcDbLine
 10
88.64035769828928
 20
62.86172454350793
 30
0.0
 11
88.64035769828928
 21
58.50965578424072
 31
0.0
  0
LINE
  5
E1
330
1F
100
AcDbEntity
  8
1
  6
Continuous
 62
     7
370
     9
100
AcDbLine
 10
89.64035769828928
 20
56.77760497667185
 30
0.0
 11
89.64035769828928
 21
53.56627983049853
 31
0.0
  0
CIRCLE
  5
E2
330
1F
100
AcDbEntity
  8
1
  6
Continuous
 62
     7
370
     9
100
AcDbCircle
 10
82.89035769828928
 20
67.27760497667184
 30
0.0
 40
7.25
  0
CIRCLE
  5
E3
330
1F
100
AcDbEntity
  8
1
  6
Continuous
 62
     7
370
     9
100
AcDbCircle
 10
82.89035769828928
 20
67.27760497667184
 30
0.0
 40
4.857999690479787
  0
CIRCLE
  5
E4
330
1F
100
AcDbEntity
  8
1
  6
Continuous
 62
     7
370
     9
100
AcDbCircle
 10
82.89035769828928
 20
67.27760497667184
 30
0.0
 40
3.75
  0
ARC
  5
E5
330
1F
100
AcDbEntity
  8
1
  6
Continuous
 62
     7
370
     9
100
AcDbCircle
 10
76.44035769828929
 20
51.07760497667185
 30
0.0
 40
0.7999999999999972
100
AcDbArc
 50
180.0000000000007
 51
269.9999999999998
  0
ARC
  5
E6
330
1F
100
AcDbEntity
  8
1
  6
Continuous
 62
     7
370
     9
100
AcDbCircle
 10
89.34035769828927
 20
51.07760497667185
 30
0.0
 40
0.7999999999999972
100
AcDbArc
 50
269.9999999999998
 51
0.0
  0
CIRCLE
  5
E7
330
1F
100
AcDbEntity
  8
1
  6
Continuous
 62
     7
370
     9
100
AcDbCircle
 10
82.89035769828928
 20
67.27760497667184
 30
0.0
 40
4.258256788161376
  0
CIRCLE
  5
E8
330
1F
100
AcDbEntity
  8
1
  6
Continuous
 62
     7
370
     9
100
AcDbCircle
 10
82.89035769828928
 20
67.27760497667184
 30
0.0
 40
5.049999999999997
  0
LINE
  5
E9
330
1F
100
AcDbEntity
  8
1
  6
Continuous
 62
     7
370
     9
100
AcDbLine
 10
90.14035769828928
 20
97.52760497667185
 30
0.0
 11
82.89035769828928
 21
97.52760497667185
 31
0.0
  0
LINE
  5
EA
330
1F
100
AcDbEntity
  8
1
  6
Continuous
 62
     7
370
     9
100
AcDbLine
 10
82.89035769828928
 20
97.81627983049853
 30
0.0
 11
76.14035769828928
 21
97.81627983049853
 31
0.0
  0
LINE
  5
EB
330
1F
100
AcDbEntity
  8
1
  6
Continuous
 62
     7
370
     9
100
AcDbLine
 10
82.89035769828928
 20
97.52760497667185
 30
0.0
 11
75.64035769828928
 21
97.52760497667185
 31
0.0
  0
LINE
  5
EC
330
1F
100
AcDbEntity
  8
1
  6
Continuous
 62
     7
370
     9
100
AcDbLine
 10
89.64035769828928
 20
97.81627983049853
 30
0.0
 11
82.89035769828928
 21
97.81627983049853
 31
0.0
  0
LINE
  5
ED
330
1F
100
AcDbEntity
  8
1
  6
Continuous
 62
     7
370
     9
100
AcDbLine
 10
75.64035769828928
 20
97.52760497667185
 30
0.0
 11
75.64035769828928
 21
95.32760497667186
 31
0.0
  0
LINE
  5
EE
330
1F
100
AcDbEntity
  8
1
  6
Continuous
 62
     7
370
     9
100
AcDbLine
 10
88.64035769828934
 20
102.7596557842407
 30
0.0
 11
89.64035769828934
 21
101.0276049766719
 31
0.0
  0
LINE
  5
EF
330
1F
100
AcDbEntity
  8
1
  6
Continuous
 62
     7
370
     9
100
AcDbLine
 10
89.64035769828928
 20
101.0276049766719
 30
0.0
 11
76.14035769828928
 21
101.0276049766719
 31
0.0
  0
LINE
  5
F0
330
1F
100
AcDbEntity
  8
1
  6
Continuous
 62
     7
370
     9
100
AcDbLine
 10
77.14035769828928
 20
111.5276049766719
 30
0.0
 11
77.14035769828928
 21
102.7596557842407
 31
0.0
  0
LINE
  5
F1
330
1F
100
AcDbEntity
  8
1
  6
Continuous
 62
     7
370
     9
100
AcDbLine
 10
88.64035769828928
 20
102.7596557842407
 30
0.0
 11
77.14035769828928
 21
102.7596557842407
 31
0.0
  0
LINE
  5
F2
330
1F
100
AcDbEntity
  8
1
  6
Continuous
 62
     7
370
     9
100
AcDbLine
 10
90.14035769828928
 20
97.52760497667185
 30
0.0
 11
90.14035769828928
 21
95.32760497667186
 31
0.0
  0
LINE
  5
F3
330
1F
100
AcDbEntity
  8
1
  6
Continuous
 62
     7
370
     9
100
AcDbLine
 10
77.14035769828928
 20
102.7596557842407
 30
0.0
 11
76.14035769828928
 21
101.0276049766719
 31
0.0
  0
LINE
  5
F4
330
1F
100
AcDbEntity
  8
1
  6
Continuous
 62
     7
370
     9
100
AcDbLine
 10
89.34035769828927
 20
94.52760497667185
 30
0.0
 11
76.44035769828929
 21
94.52760497667185
 31
0.0
  0
LINE
  5
F5
330
1F
100
AcDbEntity
  8
1
  6
Continuous
 62
     7
370
     9
100
AcDbLine
 10
76.14035769828928
 20
101.0276049766719
 30
0.0
 11
76.14035769828928
 21
97.81627983049853
 31
0.0
  0
LINE
  5
F6
330
1F
100
AcDbEntity
  8
1
  6
Continuous
 62
     7
370
     9
100
AcDbLine
 10
75.64035769828925
 20
97.52760497667185
 30
0.0
 11
76.14035769828925
 21
97.81627983049856
 31
0.0
  0
LINE
  5
F7
330
1F
100
AcDbEntity
  8
1
  6
Continuous
 62
     7
370
     9
100
AcDbLine
 10
90.14035769828917
 20
97.52760497667174
 30
0.0
 11
89.64035769828917
 21
97.81627983049844
 31
0.0
  0
LINE
  5
F8
330
1F
100
AcDbEntity
  8
1
  6
Continuous
 62
     7
370
     9
100
AcDbLine
 10
88.64035769828928
 20
111.5276047982557
 30
0.0
 11
88.64035769828928
 21
102.7596557842407
 31
0.0
  0
LINE
  5
F9
330
1F
100
AcDbEntity
  8
1
  6
Continuous
 62
     7
370
     9
100
AcDbLine
 10
89.64035769828928
 20
101.0276049766719
 30
0.0
 11
89.64035769828928
 21
97.81627983049853
 31
0.0
  0
ARC
  5
FA
330
1F
100
AcDbEntity
  8
1
  6
Continuous
 62
     7
370
     9
100
AcDbCircle
 10
82.89035769828928
 20
111.5276049766719
 30
0.0
 40
6.75
100
AcDbArc
 50
328.4136619034726
 51
211.5863380965282
  0
ARC
  5
FB
330
1F
100
AcDbEntity
  8
1
  6
Continuous
 62
     7
370
     9
100
AcDbCircle
 10
82.89035769828928
 20
111.5276049766719
 30
0.0
 40
7.25
100
AcDbArc
 50
322.4764867978863
 51
217.5235132021144
  0
ARC
  5
FC
330
1F
100
AcDbEntity
  8
1
  6
Continuous
 62
     7
370
     9
100
AcDbCircle
 10
76.44035769828929
 20
95.32760497667186
 30
0.0
 40
0.7999999999999972
100
AcDbArc
 50
180.0000000000017
 51
269.9999999999998
  0
ARC
  5
FD
330
1F
100
AcDbEntity
  8
1
  6
Continuous
 62
     7
370
     9
100
AcDbCircle
 10
89.34035769828927
 20
95.32760497667186
 30
0.0
 40
0.7999999999999972
100
AcDbArc
 50
269.9999999999998
 51
0.0
  0
ARC
  5
FE
330
1F
100
AcDbEntity
  8
1
  6
Continuous
 62
     7
370
     9
100
AcDbCircle
 10
82.89035769828928
 20
111.5276049766719
 30
0.0
 40
5.75
100
AcDbArc
 50
0.0
 51
179.9999999999999
  0
LINE
  5
FF
330
1F
100
AcDbEntity
  8
1
  6
Continuous
 62
     7
370
     9
100
AcDbLine
 10
209.1403576982893
 20
77.47760497667186
 30
0.0
 11
209.1403576982893
 21
61.07760497667185
 31
0.0
  0
LINE
  5
100
330
1F
100
AcDbEntity
  8
1
  6
Continuous
 62
     7
370
     9
100
AcDbLine
 10
181.6403576982893
 20
53.27760497667185
 30
0.0
 11
181.6403576982893
 21
51.07760497667186
 31
0.0
  0
LINE
  5
101
330
1F
100
AcDbEntity
  8
1
  6
Continuous
 62
     7
370
     9
100
AcDbLine
 10
206.1403576982893
 20
78.27760497667185
 30
0.0
 11
205.8516828444626
 21
77.77760497667185
 31
0.0
  0
LINE
  5
102
330
1F
100
AcDbEntity
  8
1
  6
Continuous
 62
     7
370
     9
100
AcDbLine
 10
206.1403576982893
 20
78.27760497667185
 30
0.0
 11
208.3403576982893
 21
78.27760497667185
 31
0.0
  0
LINE
  5
103
330
1F
100
AcDbEntity
  8
1
  6
Continuous
 62
     7
370
     9
100
AcDbLine
 10
201.1403576982893
 20
60.77760497667185
 30
0.0
 11
205.8516828444626
 21
60.77760497667185
 31
0.0
  0
LINE
  5
104
330
1F
100
AcDbEntity
  8
1
  6
Continuous
 62
     7
370
     9
100
AcDbLine
 10
197.7154865676929
 20
76.37760497667185
 30
0.0
 11
200.1403576982893
 21
77.77760497667184
 31
0.0
  0
LINE
  5
105
330
1F
100
AcDbEntity
  8
1
  6
Continuous
 62
     7
370
     9
100
AcDbLine
 10
206.1403576982893
 20
60.27760497667185
 30
0.0
 11
208.3403576982893
 21
60.27760497667185
 31
0.0
  0
LINE
  5
106
330
1F
100
AcDbEntity
  8
1
  6
Continuous
 62
     7
370
     9
100
AcDbLine
 10
206.1403576982893
 20
60.27760497667185
 30
0.0
 11
205.8516828444626
 21
60.77760497667185
 31
0.0
  0
LINE
  5
107
330
1F
100
AcDbEntity
  8
1
  6
Continuous
 62
     7
370
     9
100
AcDbLine
 10
183.5403576982893
 20
62.2024761072683
 30
0.0
 11
182.1403576982893
 21
59.77760497667185
 31
0.0
  0
LINE
  5
108
330
1F
100
AcDbEntity
  8
1
  6
Continuous
 62
     7
370
     9
100
AcDbLine
 10
199.1403576982893
 20
58.77760509209575
 30
0.0
 11
199.1403576982893
 21
53.56627983049854
 31
0.0
  0
LINE
  5
109
330
1F
100
AcDbEntity
  8
1
  6
Continuous
 62
     7
370
     9
100
AcDbLine
 10
181.6403576982893
 20
53.27760497667185
 30
0.0
 11
182.1403576982893
 21
53.56627983049854
 31
0.0
  0
LINE
  5
10A
330
1F
100
AcDbEntity
  8
1
  6
Continuous
 62
     7
370
     9
100
AcDbLine
 10
199.6403576982893
 20
53.27760497667194
 30
0.0
 11
199.1403576982893
 21
53.56627983049863
 31
0.0
  0
LINE
  5
10B
330
1F
100
AcDbEntity
  8
1
  6
Continuous
 62
     7
370
     9
100
AcDbLine
 10
199.6403576982893
 20
53.27760497667185
 30
0.0
 11
199.6403576982893
 21
51.07760497667185
 31
0.0
  0
LINE
  5
10C
330
1F
100
AcDbEntity
  8
1
  6
Continuous
 62
     7
370
     9
100
AcDbLine
 10
182.1403576982893
 20
59.77760497667191
 30
0.0
 11
182.1403576982893
 21
53.56627983049856
 31
0.0
  0
LINE
  5
10D
330
1F
100
AcDbEntity
  8
1
  6
Continuous
 62
     7
370
     9
100
AcDbLine
 10
195.7403576982893
 20
76.37760497667185
 30
0.0
 11
197.7154865676929
 21
76.37760497667185
 31
0.0
  0
LINE
  5
10E
330
1F
100
AcDbEntity
  8
1
  6
Continuous
 62
     7
370
     9
100
AcDbLine
 10
182.4403576982893
 20
50.27760497667185
 30
0.0
 11
198.8403576982893
 21
50.27760497667185
 31
0.0
  0
LINE
  5
10F
330
1F
100
AcDbEntity
  8
1
  6
Continuous
 62
     7
370
     9
100
AcDbLine
 10
183.5403576982893
 20
64.17760535814159
 30
0.0
 11
183.5403576982893
 21
62.20247610726825
 31
0.0
  0
LINE
  5
110
330
1F
100
AcDbEntity
  8
1
  6
Continuous
 62
     7
370
     9
100
AcDbLine
 10
200.1403576982893
 20
77.77760497667185
 30
0.0
 11
205.8516828444626
 21
77.77760497667185
 31
0.0
  0
LINE
  5
111
330
1F
100
AcDbEntity
  8
1
  6
Continuous
 62
     7
370
     9
100
AcDbLine
 10
206.1403576982893
 20
78.27760497667185
 30
0.0
 11
206.1403576982893
 21
60.27760497667185
 31
0.0
  0
LINE
  5
112
330
1F
100
AcDbEntity
  8
1
  6
Continuous
 62
     7
370
     9
100
AcDbLine
 10
181.6403576982893
 20
53.27760497667185
 30
0.0
 11
199.6403576982893
 21
53.27760497667182
 31
0.0
  0
LINE
  5
113
330
1F
100
AcDbEntity
  8
1
  6
Continuous
 62
     7
370
     9
100
AcDbLine
 10
182.1403576982893
 20
53.56627983049853
 30
0.0
 11
199.1403576982893
 21
53.56627983049853
 31
0.0
  0
LINE
  5
114
330
1F
100
AcDbEntity
  8
1
  6
Continuous
 62
     7
370
     9
100
AcDbLine
 10
182.1403576982893
 20
59.77760497667191
 30
0.0
 11
198.3119305735431
 21
59.7776049766719
 31
0.0
  0
LINE
  5
115
330
1F
100
AcDbEntity
  8
1
  6
Continuous
 62
     7
370
     9
100
AcDbLine
 10
200.1403576982893
 20
77.77760497667185
 30
0.0
 11
200.1403576982893
 21
61.60603210141805
 31
0.0
  0
LINE
  5
116
330
1F
100
AcDbEntity
  8
1
  6
Continuous
 62
     7
370
     9
100
AcDbLine
 10
205.8516828444626
 20
77.77760497667185
 30
0.0
 11
205.8516828444626
 21
60.77760497667185
 31
0.0
  0
LINE
  5
117
330
1F
100
AcDbEntity
  8
1
  6
Continuous
 62
     7
370
     9
100
AcDbLine
 10
183.5403576982893
 20
62.20247610726832
 30
0.0
 11
196.7154865676929
 21
62.20247610726831
 31
0.0
  0
LINE
  5
118
330
1F
100
AcDbEntity
  8
1
  6
Continuous
 62
     7
370
     9
100
AcDbLine
 10
197.7154865676929
 20
76.37760497667185
 30
0.0
 11
197.7154865676929
 21
63.20247610726831
 31
0.0
  0
LINE
  5
119
330
1F
100
AcDbEntity
  8
1
  6
Continuous
 62
     7
370
     9
100
AcDbLine
 10
183.5403576982893
 20
64.17760535814159
 30
0.0
 11
183.5403576982893
 21
62.20247610726825
 31
0.0
  0
LINE
  5
11A
330
1F
100
AcDbEntity
  8
1
  6
Continuous
 62
     7
370
     9
100
AcDbLine
 10
183.5403576982893
 20
64.17760535814159
 30
0.0
 11
183.5403576982893
 21
62.20247610726825
 31
0.0
  0
LINE
  5
11B
330
1F
100
AcDbEntity
  8
1
  6
Continuous
 62
     7
370
     9
100
AcDbLine
 10
192.6020189927074
 20
67.31594352989207
 30
0.0
 11
199.0190373471683
 21
60.89892531267014
 31
0.0
  0
ARC
  5
11C
330
1F
100
AcDbEntity
  8
1
  6
Continuous
 62
     7
370
     9
100
AcDbCircle
 10
201.1403576982893
 20
58.77760497667185
 30
0.0
 40
2.0
100
AcDbArc
 50
89.99999999999991
 51
180.0
  0
ARC
  5
11D
330
1F
100
AcDbEntity
  8
1
  6
Continuous
 62
     7
370
     9
100
AcDbCircle
 10
208.3403576982893
 20
61.07760497667185
 30
0.0
 40
0.8000000000000007
100
AcDbArc
 50
269.9999999999998
 51
0.0
  0
ARC
  5
11E
330
1F
100
AcDbEntity
  8
1
  6
Continuous
 62
     7
370
     9
100
AcDbCircle
 10
208.3403576982893
 20
77.47760497667186
 30
0.0
 40
0.8000000000000007
100
AcDbArc
 50
0.0
 51
89.99999999999991
  0
ARC
  5
11F
330
1F
100
AcDbEntity
  8
1
  6
Continuous
 62
     7
370
     9
100
AcDbCircle
 10
195.7403576982893
 20
64.17760497667186
 30
0.0
 40
12.2
100
AcDbArc
 50
89.99999999999991
 51
180.0000017915254
  0
ARC
  5
120
330
1F
100
AcDbEntity
  8
1
  6
Continuous
 62
     7
370
     9
100
AcDbCircle
 10
182.4403576982893
 20
51.07760497667185
 30
0.0
 40
0.8000000000000007
100
AcDbArc
 50
180.0000000000007
 51
269.9999999999998
  0
ARC
  5
121
330
1F
100
AcDbEntity
  8
1
  6
Continuous
 62
     7
370
     9
100
AcDbCircle
 10
198.8403576982893
 20
51.07760497667185
 30
0.0
 40
0.8
100
AcDbArc
 50
269.9999999999998
 51
0.0
  0
ARC
  5
122
330
1F
100
AcDbEntity
  8
1
  6
DASHDOT
 62
     7
370
     9
100
AcDbCircle
 10
195.2403576982893
 20
64.17760497667186
 30
0.0
 40
5.1
100
AcDbArc
 50
89.99999999999991
 51
180.0000000000001
  0
LINE
  5
123
330
1F
100
AcDbEntity
  8
1
  6
Continuous
 62
     7
370
     9
100
AcDbLine
 10
243.7029606394789
 20
62.20247610726825
 30
0.0
 11
245.2403576982893
 21
62.20247610726825
 31
0.0
  0
LINE
  5
124
330
1F
100
AcDbEntity
  8
1
  6
Continuous
 62
     7
370
     9
100
AcDbLine
 10
229.1403576982893
 20
53.27760497667185
 30
0.0
 11
247.1403576982893
 21
53.27760497667185
 31
0.0
  0
LINE
  5
125
330
1F
100
AcDbEntity
  8
1
  6
Continuous
 62
     7
370
     9
100
AcDbLine
 10
229.6403576982893
 20
53.56627983049854
 30
0.0
 11
246.6403576982893
 21
53.56627983049854
 31
0.0
  0
LINE
  5
126
330
1F
100
AcDbEntity
  8
1
  6
Continuous
 62
     7
370
     9
100
AcDbLine
 10
229.6403576982893
 20
59.77760497667185
 30
0.0
 11
246.6403576982893
 21
59.77760497667185
 31
0.0
  0
LINE
  5
127
330
1F
100
AcDbEntity
  8
1
  6
DASHDOT
 62
     7
370
     9
100
AcDbLine
 10
225.1403576982893
 20
69.27760497667184
 30
0.0
 11
227.3403576982893
 21
69.27760497667184
 31
0.0
  0
LINE
  5
128
330
1F
100
AcDbEntity
  8
1
  6
Continuous
 62
     7
370
     9
100
AcDbLine
 10
231.0403576982893
 20
63.74678225306192
 30
0.0
 11
231.0403576982893
 21
62.20247610726824
 31
0.0
  0
LINE
  5
129
330
1F
100
AcDbEntity
  8
1
  6
Continuous
 62
     7
370
     9
100
AcDbLine
 10
231.0403576982893
 20
62.20247610726827
 30
0.0
 11
229.6403576982893
 21
59.77760497667185
 31
0.0
  0
LINE
  5
12A
330
1F
100
AcDbEntity
  8
1
  6
Continuous
 62
     7
370
     9
100
AcDbLine
 10
245.2403576982893
 20
63.74678225306192
 30
0.0
 11
245.2403576982893
 21
62.20247610726824
 31
0.0
  0
LINE
  5
12B
330
1F
100
AcDbEntity
  8
1
  6
Continuous
 62
     7
370
     9
100
AcDbLine
 10
231.0403576982893
 20
62.20247610726825
 30
0.0
 11
232.5777547570996
 21
62.20247610726825
 31
0.0
  0
LINE
  5
12C
330
1F
100
AcDbEntity
  8
1
  6
Continuous
 62
     7
370
     9
100
AcDbLine
 10
246.3403576982893
 20
50.27760497667185
 30
0.0
 11
229.9403576982893
 21
50.27760497667185
 31
0.0
  0
LINE
  5
12D
330
1F
100
AcDbEntity
  8
1
  6
Continuous
 62
     7
370
     9
100
AcDbLine
 10
246.6403576982893
 20
59.77760497667185
 30
0.0
 11
246.6403576982893
 21
53.56627983049854
 31
0.0
  0
LINE
  5
12E
330
1F
100
AcDbEntity
  8
1
  6
Continuous
 62
     7
370
     9
100
AcDbLine
 10
229.1403576982893
 20
53.27760497667185
 30
0.0
 11
229.1403576982893
 21
51.07760497667185
 31
0.0
  0
LINE
  5
12F
330
1F
100
AcDbEntity
  8
1
  6
Continuous
 62
     7
370
     9
100
AcDbLine
 10
229.1403576982892
 20
53.27760497667195
 30
0.0
 11
229.6403576982892
 21
53.56627983049863
 31
0.0
  0
LINE
  5
130
330
1F
100
AcDbEntity
  8
1
  6
Continuous
 62
     7
370
     9
100
AcDbLine
 10
247.1403576982893
 20
53.27760497667185
 30
0.0
 11
246.6403576982893
 21
53.56627983049856
 31
0.0
  0
LINE
  5
131
330
1F
100
AcDbEntity
  8
1
  6
Continuous
 62
     7
370
     9
100
AcDbLine
 10
229.6403576982893
 20
59.77760497667185
 30
0.0
 11
229.6403576982893
 21
53.56627983049854
 31
0.0
  0
LINE
  5
132
330
1F
100
AcDbEntity
  8
1
  6
Continuous
 62
     7
370
     9
100
AcDbLine
 10
245.2403576982893
 20
62.20247610726828
 30
0.0
 11
246.6403576982893
 21
59.77760497667185
 31
0.0
  0
LINE
  5
133
330
1F
100
AcDbEntity
  8
1
  6
Continuous
 62
     7
370
     9
100
AcDbLine
 10
247.1403576982893
 20
53.27760497667185
 30
0.0
 11
247.1403576982893
 21
51.07760497667185
 31
0.0
  0
CIRCLE
  5
134
330
1F
100
AcDbEntity
  8
1
  6
Continuous
 62
     7
370
     9
100
AcDbCircle
 10
238.1403576982893
 20
69.27760497667185
 30
0.0
 40
5.099999999999994
  0
CIRCLE
  5
135
330
1F
100
AcDbEntity
  8
1
  6
Continuous
 62
     7
370
     9
100
AcDbCircle
 10
238.1403576982893
 20
69.27760497667185
 30
0.0
 40
9.0
  0
ARC
  5
136
330
1F
100
AcDbEntity
  8
1
  6
Continuous
 62
     7
370
     9
100
AcDbCircle
 10
229.9403576982893
 20
51.07760497667185
 30
0.0
 40
0.7999999999999972
100
AcDbArc
 50
180.0000000000007
 51
269.9999999999998
  0
CIRCLE
  5
137
330
1F
100
AcDbEntity
  8
1
  6
Continuous
 62
     7
370
     9
100
AcDbCircle
 10
238.1403576982893
 20
69.27760497667185
 30
0.0
 40
6.56974148368424
  0
CIRCLE
  5
138
330
1F
100
AcDbEntity
  8
1
  6
Continuous
 62
     7
370
     9
100
AcDbCircle
 10
238.1403576982893
 20
69.27760497667185
 30
0.0
 40
5.686127155999969
  0
CIRCLE
  5
139
330
1F
100
AcDbEntity
  8
1
  6
Continuous
 62
     7
370
     9
100
AcDbCircle
 10
238.1403576982893
 20
69.27760497667185
 30
0.0
 40
6.850000000000009
  0
ARC
  5
13A
330
1F
100
AcDbEntity
  8
1
  6
Continuous
 62
     7
370
     9
100
AcDbCircle
 10
246.3403576982893
 20
51.07760497667185
 30
0.0
 40
0.7999999999999972
100
AcDbArc
 50
269.9999999999998
 51
0.0
  0
LINE
  5
13B
330
1F
100
AcDbEntity
  8
1
  6
Continuous
 62
     7
370
     9
100
AcDbLine
 10
229.1403576982893
 20
101.2776049766719
 30
0.0
 11
229.1403576982893
 21
99.07760497667186
 31
0.0
  0
LINE
  5
13C
330
1F
100
AcDbEntity
  8
1
  6
Continuous
 62
     7
370
     9
100
AcDbLine
 10
246.3403576982893
 20
98.27760497667185
 30
0.0
 11
229.9403576982893
 21
98.27760497667185
 31
0.0
  0
LINE
  5
13D
330
1F
100
AcDbEntity
  8
1
  6
Continuous
 62
     7
370
     9
100
AcDbLine
 10
231.0403576982893
 20
110.2024761072682
 30
0.0
 11
238.1403576982893
 21
110.2024761072682
 31
0.0
  0
LINE
  5
13E
330
1F
100
AcDbEntity
  8
1
  6
Continuous
 62
     7
370
     9
100
AcDbLine
 10
245.2403576982893
 20
110.2024761072683
 30
0.0
 11
246.6403576982893
 21
107.7776049766719
 31
0.0
  0
LINE
  5
13F
330
1F
100
AcDbEntity
  8
1
  6
Continuous
 62
     7
370
     9
100
AcDbLine
 10
247.1403576982892
 20
101.2776049766718
 30
0.0
 11
246.6403576982892
 21
101.5662798304985
 31
0.0
  0
LINE
  5
140
330
1F
100
AcDbEntity
  8
1
  6
Continuous
 62
     7
370
     9
100
AcDbLine
 10
229.1403576982893
 20
101.2776049766719
 30
0.0
 11
229.6403576982893
 21
101.5662798304986
 31
0.0
  0
LINE
  5
141
330
1F
100
AcDbEntity
  8
1
  6
Continuous
 62
     7
370
     9
100
AcDbLine
 10
245.2403576982893
 20
117.277605320524
 30
0.0
 11
245.2403576982893
 21
110.2024761072682
 31
0.0
  0
LINE
  5
142
330
1F
100
AcDbEntity
  8
1
  6
Continuous
 62
     7
370
     9
100
AcDbLine
 10
231.0403576982893
 20
110.2024761072683
 30
0.0
 11
229.6403576982893
 21
107.7776049766719
 31
0.0
  0
LINE
  5
143
330
1F
100
AcDbEntity
  8
1
  6
Continuous
 62
     7
370
     9
100
AcDbLine
 10
231.0403576982893
 20
117.277605320524
 30
0.0
 11
231.0403576982893
 21
110.2024761072682
 31
0.0
  0
LINE
  5
144
330
1F
100
AcDbEntity
  8
1
  6
Continuous
 62
     7
370
     9
100
AcDbLine
 10
229.6403576982893
 20
107.7776049766719
 30
0.0
 11
246.6403576982893
 21
107.7776049766719
 31
0.0
  0
LINE
  5
145
330
1F
100
AcDbEntity
  8
1
  6
Continuous
 62
     7
370
     9
100
AcDbLine
 10
229.6403576982893
 20
101.5662798304986
 30
0.0
 11
246.6403576982893
 21
101.5662798304986
 31
0.0
  0
LINE
  5
146
330
1F
100
AcDbEntity
  8
1
  6
Continuous
 62
     7
370
     9
100
AcDbLine
 10
229.1403576982893
 20
101.2776049766719
 30
0.0
 11
247.1403576982893
 21
101.2776049766719
 31
0.0
  0
LINE
  5
147
330
1F
100
AcDbEntity
  8
1
  6
Continuous
 62
     7
370
     9
100
AcDbLine
 10
238.1403576982893
 20
110.2024761072682
 30
0.0
 11
245.2403576982893
 21
110.2024761072682
 31
0.0
  0
LINE
  5
148
330
1F
100
AcDbEntity
  8
1
  6
Continuous
 62
     7
370
     9
100
AcDbLine
 10
247.1403576982893
 20
101.2776049766719
 30
0.0
 11
247.1403576982893
 21
99.07760497667186
 31
0.0
  0
LINE
  5
149
330
1F
100
AcDbEntity
  8
1
  6
Continuous
 62
     7
370
     9
100
AcDbLine
 10
229.6403576982893
 20
107.7776049766719
 30
0.0
 11
229.6403576982893
 21
101.5662798304986
 31
0.0
  0
LINE
  5
14A
330
1F
100
AcDbEntity
  8
1
  6
Continuous
 62
     7
370
     9
100
AcDbLine
 10
246.6403576982893
 20
107.7776049766719
 30
0.0
 11
246.6403576982893
 21
101.5662798304986
 31
0.0
  0
ARC
  5
14B
330
1F
100
AcDbEntity
  8
1
  6
Continuous
 62
     7
370
     9
100
AcDbCircle
 10
238.1403576982893
 20
117.2776049766719
 30
0.0
 40
8.500000000000014
100
AcDbArc
 50
326.6464761625091
 51
213.3535238374917
  0
ARC
  5
14C
330
1F
100
AcDbEntity
  8
1
  6
Continuous
 62
     7
370
     9
100
AcDbCircle
 10
238.1403576982893
 20
117.2776049766719
 30
0.0
 40
9.0
100
AcDbArc
 50
322.0817973435549
 51
217.9182026564459
  0
ARC
  5
14D
330
1F
100
AcDbEntity
  8
1
  6
Continuous
 62
     7
370
     9
100
AcDbCircle
 10
246.3403576982893
 20
99.07760497667186
 30
0.0
 40
0.7999999999999972
100
AcDbArc
 50
269.9999999999998
 51
0.0
  0
ARC
  5
14E
330
1F
100
AcDbEntity
  8
1
  6
Continuous
 62
     7
370
     9
100
AcDbCircle
 10
229.9403576982893
 20
99.07760497667186
 30
0.0
 40
0.7999999999999972
100
AcDbArc
 50
179.9999999999998
 51
269.9999999999998
  0
ARC
  5
14F
330
1F
100
AcDbEntity
  8
1
  6
Continuous
 62
     7
370
     9
100
AcDbCircle
 10
238.1403576982893
 20
117.2776049766719
 30
0.0
 40
7.099999999999994
100
AcDbArc
 50
359.9999972251726
 51
180.0000000000001
  0
LINE
  5
150
330
1F
100
AcDbEntity
  8
1
  6
Continuous
 62
     7
370
     9
100
AcDbLine
 10
358.8903576982893
 20
54.77760497667184
 30
0.0
 11
358.8903576982893
 21
50.77760497667185
 31
0.0
  0
LINE
  5
151
330
1F
100
AcDbEntity
  8
1
  6
Continuous
 62
     7
370
     9
100
AcDbLine
 10
336.3903576982893
 20
49.77760497667185
 30
0.0
 11
357.8903576982893
 21
49.77760497667185
 31
0.0
  0
LINE
  5
152
330
1F
100
AcDbEntity
  8
1
  6
Continuous
 62
     7
370
     9
100
AcDbLine
 10
357.9403576982892
 20
59.47760497667181
 30
0.0
 11
357.9403576982892
 21
55.32608719894256
 31
0.0
  0
LINE
  5
153
330
1F
100
AcDbEntity
  8
1
  6
Continuous
 62
     7
370
     9
100
AcDbLine
 10
370.1403576982892
 20
83.52760497667181
 30
0.0
 11
370.1403576982892
 21
62.02760497667181
 31
0.0
  0
LINE
  5
154
330
1F
100
AcDbEntity
  8
1
  6
Continuous
 62
     7
370
     9
100
AcDbLine
 10
365.1403576982892
 20
84.52760497667185
 30
0.0
 11
364.5918754760185
 21
83.57760497667185
 31
0.0
  0
LINE
  5
155
330
1F
100
AcDbEntity
  8
1
  6
Continuous
 62
     7
370
     9
100
AcDbLine
 10
355.9403576982892
 20
83.57760497667181
 30
0.0
 11
364.5918754760185
 21
83.57760497667181
 31
0.0
  0
LINE
  5
156
330
1F
100
AcDbEntity
  8
1
  6
Continuous
 62
     7
370
     9
100
AcDbLine
 10
358.8903576982893
 20
54.77760497667178
 30
0.0
 11
357.9403576982892
 21
55.32608719894249
 31
0.0
  0
LINE
  5
157
330
1F
100
AcDbEntity
  8
1
  6
Continuous
 62
     7
370
     9
100
AcDbLine
 10
335.3903576982892
 20
54.7776049766719
 30
0.0
 11
336.3403576982892
 21
55.32608719894263
 31
0.0
  0
LINE
  5
158
330
1F
100
AcDbEntity
  8
1
  6
Continuous
 62
     7
370
     9
100
AcDbLine
 10
360.4403576982892
 20
61.97760497667181
 30
0.0
 11
364.5918754760185
 21
61.97760497667181
 31
0.0
  0
LINE
  5
159
330
1F
100
AcDbEntity
  8
1
  6
Continuous
 62
     7
370
     9
100
AcDbLine
 10
336.3403576982893
 20
63.97760497667184
 30
0.0
 11
336.3403576982893
 21
55.32608719894256
 31
0.0
  0
LINE
  5
15A
330
1F
100
AcDbEntity
  8
1
  6
Continuous
 62
     7
370
     9
100
AcDbLine
 10
365.1403576982892
 20
61.02760497667181
 30
0.0
 11
369.1403576982892
 21
61.02760497667181
 31
0.0
  0
LINE
  5
15B
330
1F
100
AcDbEntity
  8
1
  6
Continuous
 62
     7
370
     9
100
AcDbLine
 10
365.1403576982892
 20
61.02760497667175
 30
0.0
 11
364.5918754760185
 21
61.97760497667177
 31
0.0
  0
LINE
  5
15C
330
1F
100
AcDbEntity
  8
1
  6
Continuous
 62
     7
370
     9
100
AcDbLine
 10
335.3903576982893
 20
54.77760497667184
 30
0.0
 11
335.3903576982893
 21
50.77760497667184
 31
0.0
  0
LINE
  5
15D
330
1F
100
AcDbEntity
  8
1
  6
Continuous
 62
     7
370
     9
100
AcDbLine
 10
365.1403576982892
 20
84.52760497667181
 30
0.0
 11
369.1403576982892
 21
84.52760497667181
 31
0.0
  0
LINE
  5
15E
330
1F
100
AcDbEntity
  8
1
  6
Continuous
 62
     7
370
     9
100
AcDbLine
 10
365.1403576982892
 20
84.52760497667181
 30
0.0
 11
365.1403576982892
 21
61.02760497667181
 31
0.0
  0
LINE
  5
15F
330
1F
100
AcDbEntity
  8
1
  6
Continuous
 62
     7
370
     9
100
AcDbLine
 10
364.5918754760184
 20
83.52760497667181
 30
0.0
 11
364.5918754760184
 21
62.02760497667181
 31
0.0
  0
LINE
  5
160
330
1F
100
AcDbEntity
  8
1
  6
Continuous
 62
     7
370
     9
100
AcDbLine
 10
335.3903576982893
 20
54.77760497667181
 30
0.0
 11
358.8903576982893
 21
54.77760497667181
 31
0.0
  0
LINE
  5
161
330
1F
100
AcDbEntity
  8
1
  6
Continuous
 62
     7
370
     9
100
AcDbLine
 10
336.3903576982893
 20
55.3260871989425
 30
0.0
 11
357.8903576982893
 21
55.3260871989425
 31
0.0
  0
LINE
  5
162
330
1F
100
AcDbEntity
  8
1
  6
Continuous
 62
     7
370
     9
100
AcDbLine
 10
350.3768277661779
 20
69.54113490878315
 30
0.0
 11
357.9654839641364
 21
61.95247871082474
 31
0.0
  0
ARC
  5
163
330
1F
100
AcDbEntity
  8
1
  6
Continuous
 62
     7
370
     9
100
AcDbCircle
 10
336.3903576982893
 20
50.77760497667185
 30
0.0
 40
1.0
100
AcDbArc
 50
180.0000000000004
 51
269.9999999999998
  0
ARC
  5
164
330
1F
100
AcDbEntity
  8
1
  6
Continuous
 62
     7
370
     9
100
AcDbCircle
 10
357.8903576982893
 20
50.77760497667184
 30
0.0
 40
1.0
100
AcDbArc
 50
269.9999999999998
 51
0.0
  0
ARC
  5
165
330
1F
100
AcDbEntity
  8
1
  6
Continuous
 62
     7
370
     9
100
AcDbCircle
 10
355.9403576982892
 20
63.97760497667181
 30
0.0
 40
19.6
100
AcDbArc
 50
89.99999999999991
 51
180.000003817397
  0
ARC
  5
166
330
1F
100
AcDbEntity
  8
1
  6
Continuous
 62
     7
370
     9
100
AcDbCircle
 10
360.4403576982892
 20
59.47760497667181
 30
0.0
 40
2.5
100
AcDbArc
 50
89.99999999999991
 51
180.0
  0
ARC
  5
167
330
1F
100
AcDbEntity
  8
1
  6
Continuous
 62
     7
370
     9
100
AcDbCircle
 10
369.1403576982892
 20
62.02760497667181
 30
0.0
 40
1.0
100
AcDbArc
 50
269.9999999999998
 51
0.0
  0
ARC
  5
168
330
1F
100
AcDbEntity
  8
1
  6
Continuous
 62
     7
370
     9
100
AcDbCircle
 10
369.1403576982892
 20
83.52760497667181
 30
0.0
 40
1.0
100
AcDbArc
 50
0.0
 51
89.99999999999991
  0
ARC
  5
169
330
1F
100
AcDbEntity
  8
1
  6
DASHDOT
 62
     7
370
     9
100
AcDbCircle
 10
355.9403576982892
 20
63.97760497667181
 30
0.0
 40
8.8
100
AcDbArc
 50
89.99999999999991
 51
180.0000000000001
  0
LINE
  5
16A
330
1F
100
AcDbEntity
  8
1
  6
Continuous
 62
     7
370
     9
100
AcDbLine
 10
390.1403577548805
 20
54.77760497667184
 30
0.0
 11
390.1403577548805
 21
50.77760497667184
 31
0.0
  0
LINE
  5
16B
330
1F
100
AcDbEntity
  8
1
  6
Continuous
 62
     7
370
     9
100
AcDbLine
 10
391.0903577548806
 20
68.14916031350462
 30
0.0
 11
391.0903577548806
 21
55.32608719894256
 31
0.0
  0
LINE
  5
16C
330
1F
100
AcDbEntity
  8
1
  6
Continuous
 62
     7
370
     9
100
AcDbLine
 10
413.6403577548806
 20
54.7776049766719
 30
0.0
 11
412.6903577548807
 21
55.3260871989426
 31
0.0
  0
LINE
  5
16D
330
1F
100
AcDbEntity
  8
1
  6
Continuous
 62
     7
370
     9
100
AcDbLine
 10
412.6403577548805
 20
49.77760497667185
 30
0.0
 11
391.1403577548805
 21
49.77760497667184
 31
0.0
  0
LINE
  5
16E
330
1F
100
AcDbEntity
  8
1
  6
Continuous
 62
     7
370
     9
100
AcDbLine
 10
413.6403577548806
 20
54.77760497667184
 30
0.0
 11
413.6403577548806
 21
50.77760497667185
 31
0.0
  0
LINE
  5
16F
330
1F
100
AcDbEntity
  8
1
  6
Continuous
 62
     7
370
     9
100
AcDbLine
 10
390.1403577548806
 20
54.77760497667177
 30
0.0
 11
391.0903577548806
 21
55.32608719894246
 31
0.0
  0
LINE
  5
170
330
1F
100
AcDbEntity
  8
1
  6
Continuous
 62
     7
370
     9
100
AcDbLine
 10
413.6403577548805
 20
54.77760497667185
 30
0.0
 11
390.1403577548805
 21
54.77760497667184
 31
0.0
  0
LINE
  5
171
330
1F
100
AcDbEntity
  8
1
  6
Continuous
 62
     7
370
     9
100
AcDbLine
 10
412.6903577548806
 20
68.14916031350471
 30
0.0
 11
412.6903577548806
 21
55.32608719894255
 31
0.0
  0
LINE
  5
172
330
1F
100
AcDbEntity
  8
1
  6
Continuous
 62
     7
370
     9
100
AcDbLine
 10
412.6903577548806
 20
55.32608719894259
 30
0.0
 11
391.0903577548806
 21
55.32608719894259
 31
0.0
  0
ARC
  5
173
330
1F
100
AcDbEntity
  8
1
  6
Continuous
 62
     7
370
     9
100
AcDbCircle
 10
412.6403577548805
 20
50.77760497667185
 30
0.0
 40
1.0
100
AcDbArc
 50
270.0000000000061
 51
0.0
  0
ARC
  5
174
330
1F
100
AcDbEntity
  8
1
  6
Continuous
 62
     7
370
     9
100
AcDbCircle
 10
391.1403577548805
 20
50.77760497667184
 30
0.0
 40
1.0
100
AcDbArc
 50
179.9999999999998
 51
269.9999999999998
  0
CIRCLE
  5
175
330
1F
100
AcDbEntity
  8
1
  6
Continuous
 62
     7
370
     9
100
AcDbCircle
 10
401.8903577548805
 20
72.77760497667181
 30
0.0
 40
11.75
  0
CIRCLE
  5
176
330
1F
100
AcDbEntity
  8
1
  6
Continuous
 62
     7
370
     9
100
AcDbCircle
 10
401.8903577548805
 20
72.77760497667181
 30
0.0
 40
7.438709677419354
  0
CIRCLE
  5
177
330
1F
100
AcDbEntity
  8
1
  6
Continuous
 62
     7
370
     9
100
AcDbCircle
 10
401.8903577548805
 20
72.77760497667181
 30
0.0
 40
8.599999999999994
  0
CIRCLE
  5
178
330
1F
100
AcDbEntity
  8
1
  6
Continuous
 62
     7
370
     9
100
AcDbCircle
 10
401.8903577548805
 20
72.77760497667181
 30
0.0
 40
8.322322580645164
  0
LINE
  5
179
330
1F
100
AcDbEntity
  8
1
  6
Continuous
 62
     7
370
     9
100
AcDbLine
 10
412.6903577548806
 20
110.0760871989426
 30
0.0
 11
391.0903577548806
 21
110.0760871989426
 31
0.0
  0
LINE
  5
17A
330
1F
100
AcDbEntity
  8
1
  6
Continuous
 62
     7
370
     9
100
AcDbLine
 10
412.6903577548806
 20
127.5276049766718
 30
0.0
 11
412.6903577548806
 21
110.0760871989425
 31
0.0
  0
LINE
  5
17B
330
1F
100
AcDbEntity
  8
1
  6
Continuous
 62
     7
370
     9
100
AcDbLine
 10
413.6403577548805
 20
109.5276049766718
 30
0.0
 11
390.1403577548805
 21
109.5276049766718
 31
0.0
  0
LINE
  5
17C
330
1F
100
AcDbEntity
  8
1
  6
Continuous
 62
     7
370
     9
100
AcDbLine
 10
390.1403577548805
 20
109.5276049766718
 30
0.0
 11
391.0903577548805
 21
110.0760871989425
 31
0.0
  0
LINE
  5
17D
330
1F
100
AcDbEntity
  8
1
  6
Continuous
 62
     7
370
     9
100
AcDbLine
 10
413.6403577548806
 20
109.5276049766718
 30
0.0
 11
413.6403577548806
 21
105.5276049766718
 31
0.0
  0
LINE
  5
17E
330
1F
100
AcDbEntity
  8
1
  6
Continuous
 62
     7
370
     9
100
AcDbLine
 10
412.6403577548805
 20
104.5276049766718
 30
0.0
 11
391.1403577548805
 21
104.5276049766718
 31
0.0
  0
LINE
  5
17F
330
1F
100
AcDbEntity
  8
1
  6
Continuous
 62
     7
370
     9
100
AcDbLine
 10
413.6403577548806
 20
109.5276049766719
 30
0.0
 11
412.6903577548807
 21
110.0760871989426
 31
0.0
  0
LINE
  5
180
330
1F
100
AcDbEntity
  8
1
  6
Continuous
 62
     7
370
     9
100
AcDbLine
 10
391.0903577548806
 20
127.5276040155757
 30
0.0
 11
391.0903577548806
 21
110.0760871989425
 31
0.0
  0
LINE
  5
181
330
1F
100
AcDbEntity
  8
1
  6
Continuous
 62
     7
370
     9
100
AcDbLine
 10
390.1403577548805
 20
109.5276049766718
 30
0.0
 11
390.1403577548805
 21
105.5276049766718
 31
0.0
  0
ARC
  5
182
330
1F
100
AcDbEntity
  8
1
  6
Continuous
 62
     7
370
     9
100
AcDbCircle
 10
401.8903577548805
 20
127.5276049766718
 30
0.0
 40
11.75
100
AcDbArc
 50
336.8019776449135
 51
203.198022355088
  0
ARC
  5
183
330
1F
100
AcDbEntity
  8
1
  6
Continuous
 62
     7
370
     9
100
AcDbCircle
 10
391.1403577548805
 20
105.5276049766718
 30
0.0
 40
1.0
100
AcDbArc
 50
180.0000000000029
 51
269.9999999999998
  0
ARC
  5
184
330
1F
100
AcDbEntity
  8
1
  6
Continuous
 62
     7
370
     9
100
AcDbCircle
 10
412.6403577548805
 20
105.5276049766718
 30
0.0
 40
1.0
100
AcDbArc
 50
270.0000000000061
 51
0.0
  0
ARC
  5
185
330
1F
100
AcDbEntity
  8
1
  6
Continuous
 62
     7
370
     9
100
AcDbCircle
 10
401.8903577548805
 20
127.5276049766718
 30
0.0
 40
10.8
100
AcDbArc
 50
0.0
 51
179.9999999999999
  0
LINE
  5
186
330
1F
100
AcDbEntity
  8
1
  6
Continuous
 62
     7
370
     9
100
AcDbLine
 10
500.6403577548806
 20
49.77760497667191
 30
0.0
 11
526.6403577548806
 21
49.77760497667181
 31
0.0
  0
LINE
  5
187
330
1F
100
AcDbEntity
  8
1
  6
Continuous
 62
     7
370
     9
100
AcDbLine
 10
499.6403577548806
 20
54.77760497667192
 30
0.0
 11
500.5403577548807
 21
55.2972202189426
 31
0.0
  0
LINE
  5
188
330
1F
100
AcDbEntity
  8
1
  6
Continuous
 62
     7
370
     9
100
AcDbLine
 10
540.6403577548807
 20
89.77760497667185
 30
0.0
 11
540.6403577548807
 21
63.77760497667187
 31
0.0
  0
LINE
  5
189
330
1F
100
AcDbEntity
  8
1
  6
Continuous
 62
     7
370
     9
100
AcDbLine
 10
535.6403577548807
 20
62.77760497667187
 30
0.0
 11
539.6403577548807
 21
62.77760497667187
 31
0.0
  0
LINE
  5
18A
330
1F
100
AcDbEntity
  8
1
  6
Continuous
 62
     7
370
     9
100
AcDbLine
 10
535.12074251261
 20
63.67760497667186
 30
0.0
 11
535.6403577548807
 21
62.77760497667187
 31
0.0
  0
LINE
  5
18B
330
1F
100
AcDbEntity
  8
1
  6
Continuous
 62
     7
370
     9
100
AcDbLine
 10
535.12074251261
 20
89.87760497667188
 30
0.0
 11
535.6403577548807
 21
90.77760497667191
 31
0.0
  0
LINE
  5
18C
330
1F
100
AcDbEntity
  8
1
  6
Continuous
 62
     7
370
     9
100
AcDbLine
 10
499.6403577548806
 20
54.77760497667192
 30
0.0
 11
499.6403577548806
 21
50.77760497667192
 31
0.0
  0
LINE
  5
18D
330
1F
100
AcDbEntity
  8
1
  6
Continuous
 62
     7
370
     9
100
AcDbLine
 10
526.7403577548806
 20
55.29722021894251
 30
0.0
 11
527.6403577548807
 21
54.77760497667187
 31
0.0
  0
LINE
  5
18E
330
1F
100
AcDbEntity
  8
1
  6
Continuous
 62
     7
370
     9
100
AcDbLine
 10
527.6403577548806
 20
54.77760497667182
 30
0.0
 11
527.6403577548806
 21
50.77760497667181
 31
0.0
  0
LINE
  5
18F
330
1F
100
AcDbEntity
  8
1
  6
Continuous
 62
     7
370
     9
100
AcDbLine
 10
535.6403577548807
 20
90.77760497667185
 30
0.0
 11
539.6403577548807
 21
90.77760497667185
 31
0.0
  0
LINE
  5
190
330
1F
100
AcDbEntity
  8
1
  6
Continuous
 62
     7
370
     9
100
AcDbLine
 10
500.5403577548807
 20
65.77760497667195
 30
0.0
 11
500.5403577548807
 21
55.2972202189426
 31
0.0
  0
LINE
  5
191
330
1F
100
AcDbEntity
  8
1
  6
Continuous
 62
     7
370
     9
100
AcDbLine
 10
529.2403577548806
 20
63.67760497667187
 30
0.0
 11
535.12074251261
 21
63.67760497667187
 31
0.0
  0
LINE
  5
192
330
1F
100
AcDbEntity
  8
1
  6
Continuous
 62
     7
370
     9
100
AcDbLine
 10
524.6403577548806
 20
89.87760497667188
 30
0.0
 11
535.12074251261
 21
89.87760497667188
 31
0.0
  0
LINE
  5
193
330
1F
100
AcDbEntity
  8
1
  6
Continuous
 62
     7
370
     9
100
AcDbLine
 10
526.7403577548806
 20
61.17760497667187
 30
0.0
 11
526.7403577548806
 21
55.29722021894248
 31
0.0
  0
LINE
  5
194
330
1F
100
AcDbEntity
  8
1
  6
Continuous
 62
     7
370
     9
100
AcDbLine
 10
499.6403577548806
 20
54.77760497667194
 30
0.0
 11
527.6403577548806
 21
54.77760497667184
 31
0.0
  0
LINE
  5
195
330
1F
100
AcDbEntity
  8
1
  6
Continuous
 62
     7
370
     9
100
AcDbLine
 10
500.5403577548807
 20
55.29722021894263
 30
0.0
 11
526.7403577548806
 21
55.29722021894251
 31
0.0
  0
LINE
  5
196
330
1F
100
AcDbEntity
  8
1
  6
Continuous
 62
     7
370
     9
100
AcDbLine
 10
535.6403577548807
 20
90.77760497667185
 30
0.0
 11
535.6403577548807
 21
62.77760497667187
 31
0.0
  0
LINE
  5
197
330
1F
100
AcDbEntity
  8
1
  6
Continuous
 62
     7
370
     9
100
AcDbLine
 10
535.12074251261
 20
89.87760497667188
 30
0.0
 11
535.12074251261
 21
63.67760497667187
 31
0.0
  0
LINE
  5
198
330
1F
100
AcDbEntity
  8
1
  6
Continuous
 62
     7
370
     9
100
AcDbLine
 10
517.5358375650997
 20
72.88212516645298
 30
0.0
 11
526.7654840207277
 21
63.65247871082478
 31
0.0
  0
ARC
  5
199
330
1F
100
AcDbEntity
  8
1
  6
Continuous
 62
     7
370
     9
100
AcDbCircle
 10
526.6403577548806
 20
50.77760497667182
 30
0.0
 40
1.0
100
AcDbArc
 50
269.9999999999998
 51
0.0
  0
ARC
  5
19A
330
1F
100
AcDbEntity
  8
1
  6
Continuous
 62
     7
370
     9
100
AcDbCircle
 10
500.6403577548806
 20
50.77760497667191
 30
0.0
 40
1.0
100
AcDbArc
 50
179.9999999999998
 51
269.9999999999998
  0
ARC
  5
19B
330
1F
100
AcDbEntity
  8
1
  6
Continuous
 62
     7
370
     9
100
AcDbCircle
 10
524.6403577548806
 20
65.77760497667187
 30
0.0
 40
24.1
100
AcDbArc
 50
89.99999999999991
 51
180.0
  0
ARC
  5
19C
330
1F
100
AcDbEntity
  8
1
  6
Continuous
 62
     7
370
     9
100
AcDbCircle
 10
539.6403577548807
 20
89.77760497667185
 30
0.0
 40
1.0
100
AcDbArc
 50
0.0
 51
89.99999999999991
  0
ARC
  5
19D
330
1F
100
AcDbEntity
  8
1
  6
Continuous
 62
     7
370
     9
100
AcDbCircle
 10
539.6403577548807
 20
63.77760497667187
 30
0.0
 40
1.0
100
AcDbArc
 50
269.9999999999998
 51
0.0
  0
ARC
  5
19E
330
1F
100
AcDbEntity
  8
1
  6
Continuous
 62
     7
370
     9
100
AcDbCircle
 10
529.2403577548806
 20
61.17760497667187
 30
0.0
 40
2.5
100
AcDbArc
 50
89.99999999999991
 51
179.9999999999998
  0
ARC
  5
19F
330
1F
100
AcDbEntity
  8
1
  6
DASHDOT
 62
     7
370
     9
100
AcDbCircle
 10
524.6403577548807
 20
65.77760497667187
 30
0.0
 40
11.0
100
AcDbArc
 50
91.84170645438796
 51
180.0000000000001
  0
LINE
  5
1A0
330
1F
100
AcDbEntity
  8
1
  6
Continuous
 62
     7
370
     9
100
AcDbLine
 10
560.6403577548807
 20
54.77760497667191
 30
0.0
 11
588.6403577548807
 21
54.77760497667181
 31
0.0
  0
LINE
  5
1A1
330
1F
100
AcDbEntity
  8
1
  6
Continuous
 62
     7
370
     9
100
AcDbLine
 10
561.6403577548807
 20
49.77760497667191
 30
0.0
 11
587.6403577548807
 21
49.77760497667181
 31
0.0
  0
LINE
  5
1A2
330
1F
100
AcDbEntity
  8
1
  6
Continuous
 62
     7
370
     9
100
AcDbLine
 10
561.5403577548808
 20
55.29722021894266
 30
0.0
 11
587.7403577548808
 21
55.29722021894256
 31
0.0
  0
LINE
  5
1A3
330
1F
100
AcDbEntity
  8
1
  6
Continuous
 62
     7
370
     9
100
AcDbLine
 10
560.6403577548807
 20
54.77760497667192
 30
0.0
 11
560.6403577548807
 21
50.77760497667191
 31
0.0
  0
LINE
  5
1A4
330
1F
100
AcDbEntity
  8
1
  6
Continuous
 62
     7
370
     9
100
AcDbLine
 10
588.6403577548807
 20
54.77760497667182
 30
0.0
 11
588.6403577548807
 21
50.77760497667181
 31
0.0
  0
LINE
  5
1A5
330
1F
100
AcDbEntity
  8
1
  6
Continuous
 62
     7
370
     9
100
AcDbLine
 10
560.6403577548807
 20
54.77760497667194
 30
0.0
 11
561.5403577548808
 21
55.29722021894266
 31
0.0
  0
LINE
  5
1A6
330
1F
100
AcDbEntity
  8
1
  6
Continuous
 62
     7
370
     9
100
AcDbLine
 10
561.5403577548808
 20
71.83898168672557
 30
0.0
 11
561.5403577548808
 21
55.29722021894266
 31
0.0
  0
LINE
  5
1A7
330
1F
100
AcDbEntity
  8
1
  6
Continuous
 62
     7
370
     9
100
AcDbLine
 10
587.7403577548808
 20
71.83898168672557
 30
0.0
 11
587.7403577548808
 21
55.29722021894266
 31
0.0
  0
LINE
  5
1A8
330
1F
100
AcDbEntity
  8
1
  6
Continuous
 62
     7
370
     9
100
AcDbLine
 10
588.6403577548809
 20
54.77760497667192
 30
0.0
 11
587.7403577548808
 21
55.29722021894263
 31
0.0
  0
CIRCLE
  5
1A9
330
1F
100
AcDbEntity
  8
1
  6
Continuous
 62
     7
370
     9
100
AcDbCircle
 10
574.6403577548808
 20
76.77760497667187
 30
0.0
 40
14.0
  0
ARC
  5
1AA
330
1F
100
AcDbEntity
  8
1
  6
Continuous
 62
     7
370
     9
100
AcDbCircle
 10
561.6403577548807
 20
50.77760497667191
 30
0.0
 40
1.0
100
AcDbArc
 50
179.9999999999998
 51
269.9999999999998
  0
ARC
  5
1AB
330
1F
100
AcDbEntity
  8
1
  6
Continuous
 62
     7
370
     9
100
AcDbCircle
 10
587.6403577548807
 20
50.77760497667182
 30
0.0
 40
1.0
100
AcDbArc
 50
269.9999999999998
 51
0.0
  0
CIRCLE
  5
1AC
330
1F
100
AcDbEntity
  8
1
  6
Continuous
 62
     7
370
     9
100
AcDbCircle
 10
574.6403577548808
 20
76.77760497667187
 30
0.0
 40
9.265999999999991
  0
CIRCLE
  5
1AD
330
1F
100
AcDbEntity
  8
1
  6
Continuous
 62
     7
370
     9
100
AcDbCircle
 10
574.6403577548808
 20
76.77760497667187
 30
0.0
 40
10.46548387096774
  0
CIRCLE
  5
1AE
330
1F
100
AcDbEntity
  8
1
  6
Continuous
 62
     7
370
     9
100
AcDbCircle
 10
574.6403577548808
 20
76.77760497667187
 30
0.0
 40
10.84999999999998
  0
LINE
  5
1AF
330
1F
100
AcDbEntity
  8
1
  6
Continuous
 62
     7
370
     9
100
AcDbLine
 10
561.5403577548808
 20
137.7776049766719
 30
0.0
 11
561.5403577548808
 21
116.2972202189426
 31
0.0
  0
LINE
  5
1B0
330
1F
100
AcDbEntity
  8
1
  6
Continuous
 62
     7
370
     9
100
AcDbLine
 10
560.6403577548807
 20
115.7776049766719
 30
0.0
 11
561.5403577548808
 21
116.2972202189426
 31
0.0
  0
LINE
  5
1B1
330
1F
100
AcDbEntity
  8
1
  6
Continuous
 62
     7
370
     9
100
AcDbLine
 10
588.6403577548807
 20
115.7776049766718
 30
0.0
 11
588.6403577548807
 21
111.7776049766718
 31
0.0
  0
LINE
  5
1B2
330
1F
100
AcDbEntity
  8
1
  6
Continuous
 62
     7
370
     9
100
AcDbLine
 10
560.6403577548807
 20
115.7776049766719
 30
0.0
 11
560.6403577548807
 21
111.7776049766719
 31
0.0
  0
LINE
  5
1B3
330
1F
100
AcDbEntity
  8
1
  6
Continuous
 62
     7
370
     9
100
AcDbLine
 10
561.5403577548808
 20
116.2972202189426
 30
0.0
 11
587.7403577548808
 21
116.2972202189425
 31
0.0
  0
LINE
  5
1B4
330
1F
100
AcDbEntity
  8
1
  6
Continuous
 62
     7
370
     9
100
AcDbLine
 10
561.6403577548807
 20
110.7776049766719
 30
0.0
 11
587.6403577548807
 21
110.7776049766718
 31
0.0
  0
LINE
  5
1B5
330
1F
100
AcDbEntity
  8
1
  6
Continuous
 62
     7
370
     9
100
AcDbLine
 10
560.6403577548807
 20
115.7776049766719
 30
0.0
 11
588.6403577548807
 21
115.7776049766718
 31
0.0
  0
LINE
  5
1B6
330
1F
100
AcDbEntity
  8
1
  6
Continuous
 62
     7
370
     9
100
AcDbLine
 10
587.7403577548808
 20
137.7776049766719
 30
0.0
 11
587.7403577548808
 21
116.2972202189426
 31
0.0
  0
LINE
  5
1B7
330
1F
100
AcDbEntity
  8
1
  6
Continuous
 62
     7
370
     9
100
AcDbLine
 10
588.6403577548809
 20
115.7776049766719
 30
0.0
 11
587.7403577548808
 21
116.2972202189426
 31
0.0
  0
ARC
  5
1B8
330
1F
100
AcDbEntity
  8
1
  6
Continuous
 62
     7
370
     9
100
AcDbCircle
 10
587.6403577548807
 20
111.7776049766718
 30
0.0
 40
1.0
100
AcDbArc
 50
269.9999999999998
 51
0.0000000000032569
  0
ARC
  5
1B9
330
1F
100
AcDbEntity
  8
1
  6
Continuous
 62
     7
370
     9
100
AcDbCircle
 10
561.6403577548807
 20
111.7776049766719
 30
0.0
 40
1.0
100
AcDbArc
 50
179.9999999999998
 51
269.9999999999998
  0
ARC
  5
1BA
330
1F
100
AcDbEntity
  8
1
  6
Continuous
 62
     7
370
     9
100
AcDbCircle
 10
574.6403577548808
 20
137.7776049766719
 30
0.0
 40
14.0
100
AcDbArc
 50
339.3438508233353
 51
200.6561491766651
  0
ARC
  5
1BB
330
1F
100
AcDbEntity
  8
1
  6
Continuous
 62
     7
370
     9
100
AcDbCircle
 10
574.6403577548808
 20
137.7776049766719
 30
0.0
 40
13.10000000000001
100
AcDbArc
 50
0.0
 51
179.9999999999999
  0
LINE
  5
1BC
330
1F
100
AcDbEntity
  8
1
  6
Continuous
 62
     7
370
     9
100
AcDbLine
 10
671.6403577548807
 20
55.27760497667181
 30
0.0
 11
672.3903577548807
 21
55.71061767856403
 31
0.0
  0
LINE
  5
1BD
330
1F
100
AcDbEntity
  8
1
  6
Continuous
 62
     7
370
     9
100
AcDbLine
 10
715.1403577548808
 20
64.77760497667191
 30
0.0
 11
714.7073450529887
 21
65.52760497667192
 31
0.0
  0
LINE
  5
1BE
330
1F
100
AcDbEntity
  8
1
  6
Continuous
 62
     7
370
     9
100
AcDbLine
 10
720.6403577548808
 20
97.77760497667197
 30
0.0
 11
720.6403577548807
 21
65.77760449853602
 31
0.0
  0
LINE
  5
1BF
330
1F
100
AcDbEntity
  8
1
  6
Continuous
 62
     7
370
     9
100
AcDbLine
 10
715.1403577548809
 20
64.77760497667195
 30
0.0
 11
719.6403577548809
 21
64.77760497667195
 31
0.0
  0
LINE
  5
1C0
330
1F
100
AcDbEntity
  8
1
  6
Continuous
 62
     7
370
     9
100
AcDbLine
 10
705.6403577548807
 20
55.2776049766718
 30
0.0
 11
705.6403577548807
 21
50.77760497667181
 31
0.0
  0
LINE
  5
1C1
330
1F
100
AcDbEntity
  8
1
  6
Continuous
 62
     7
370
     9
100
AcDbLine
 10
672.6403577548807
 20
49.77760497667181
 30
0.0
 11
704.6403582330166
 21
49.77760497667191
 31
0.0
  0
LINE
  5
1C2
330
1F
100
AcDbEntity
  8
1
  6
Continuous
 62
     7
370
     9
100
AcDbLine
 10
705.6403577548807
 20
55.27760497667178
 30
0.0
 11
704.8903577548807
 21
55.71061767856401
 31
0.0
  0
LINE
  5
1C3
330
1F
100
AcDbEntity
  8
1
  6
Continuous
 62
     7
370
     9
100
AcDbLine
 10
671.6403577548807
 20
55.2776049766718
 30
0.0
 11
671.6403577548807
 21
50.7776049766718
 31
0.0
  0
LINE
  5
1C4
330
1F
100
AcDbEntity
  8
1
  6
Continuous
 62
     7
370
     9
100
AcDbLine
 10
707.3903577548808
 20
65.52760497667195
 30
0.0
 11
714.7073450529887
 21
65.52760497667195
 31
0.0
  0
LINE
  5
1C5
330
1F
100
AcDbEntity
  8
1
  6
Continuous
 62
     7
370
     9
100
AcDbLine
 10
704.8903577548807
 20
63.02760497667195
 30
0.0
 11
704.8903577548807
 21
55.71061767856401
 31
0.0
  0
LINE
  5
1C6
330
1F
100
AcDbEntity
  8
1
  6
Continuous
 62
     7
370
     9
100
AcDbLine
 10
672.3903577548807
 20
68.02760497667192
 30
0.0
 11
672.3903577548807
 21
55.71061767856406
 31
0.0
  0
LINE
  5
1C7
330
1F
100
AcDbEntity
  8
1
  6
Continuous
 62
     7
370
     9
100
AcDbLine
 10
702.3903577548808
 20
98.02760497667197
 30
0.0
 11
714.7073450529887
 21
98.02760497667197
 31
0.0
  0
LINE
  5
1C8
330
1F
100
AcDbEntity
  8
1
  6
Continuous
 62
     7
370
     9
100
AcDbLine
 10
715.1403577548809
 20
98.77760497667197
 30
0.0
 11
719.6403577548809
 21
98.77760497667197
 31
0.0
  0
LINE
  5
1C9
330
1F
100
AcDbEntity
  8
1
  6
Continuous
 62
     7
370
     9
100
AcDbLine
 10
715.1403577548809
 20
98.777604976672
 30
0.0
 11
714.7073450529887
 21
98.027604976672
 31
0.0
  0
LINE
  5
1CA
330
1F
100
AcDbEntity
  8
1
  6
Continuous
 62
     7
370
     9
100
AcDbLine
 10
715.1403577548809
 20
98.77760497667214
 30
0.0
 11
715.1403577548808
 21
64.77760497667195
 31
0.0
  0
LINE
  5
1CB
330
1F
100
AcDbEntity
  8
1
  6
Continuous
 62
     7
370
     9
100
AcDbLine
 10
714.7073450529887
 20
98.02760497667197
 30
0.0
 11
714.7073450529886
 21
65.52760497667195
 31
0.0
  0
LINE
  5
1CC
330
1F
100
AcDbEntity
  8
1
  6
Continuous
 62
     7
370
     9
100
AcDbLine
 10
671.6403577548807
 20
55.27760497667168
 30
0.0
 11
705.6403577548807
 21
55.2776049766718
 31
0.0
  0
LINE
  5
1CD
330
1F
100
AcDbEntity
  8
1
  6
Continuous
 62
     7
370
     9
100
AcDbLine
 10
672.3903577548807
 20
55.71061767856391
 30
0.0
 11
704.8903577548807
 21
55.71061767856401
 31
0.0
  0
LINE
  5
1CE
330
1F
100
AcDbEntity
  8
1
  6
Continuous
 62
     7
370
     9
100
AcDbLine
 10
693.3998725605994
 20
77.01809017095333
 30
0.0
 11
704.9154840207278
 21
65.50247871082486
 31
0.0
  0
ARC
  5
1CF
330
1F
100
AcDbEntity
  8
1
  6
Continuous
 62
     7
370
     9
100
AcDbCircle
 10
707.3903577548807
 20
63.02760497667195
 30
0.0
 40
2.5
100
AcDbArc
 50
89.99999999999991
 51
180.0
  0
ARC
  5
1D0
330
1F
100
AcDbEntity
  8
1
  6
Continuous
 62
     7
370
     9
100
AcDbCircle
 10
719.6403577548809
 20
97.77760497667197
 30
0.0
 40
1.0
100
AcDbArc
 50
0.0
 51
89.99999999999991
  0
ARC
  5
1D1
330
1F
100
AcDbEntity
  8
1
  6
Continuous
 62
     7
370
     9
100
AcDbCircle
 10
719.6403577548809
 20
65.77760497667195
 30
0.0
 40
1.0
100
AcDbArc
 50
269.9999999999998
 51
0.0
  0
ARC
  5
1D2
330
1F
100
AcDbEntity
  8
1
  6
Continuous
 62
     7
370
     9
100
AcDbCircle
 10
672.6403577548807
 20
50.77760497667181
 30
0.0
 40
1.0
100
AcDbArc
 50
179.9999999999998
 51
269.9999999999998
  0
ARC
  5
1D3
330
1F
100
AcDbEntity
  8
1
  6
Continuous
 62
     7
370
     9
100
AcDbCircle
 10
704.6403577548807
 20
50.7776049766718
 30
0.0
 40
1.0
100
AcDbArc
 50
269.9999999999998
 51
0.0
  0
ARC
  5
1D4
330
1F
100
AcDbEntity
  8
1
  6
Continuous
 62
     7
370
     9
100
AcDbCircle
 10
702.3903577548807
 20
68.02760497667195
 30
0.0
 40
29.99999999999999
100
AcDbArc
 50
89.99999999999991
 51
179.9999999999998
  0
ARC
  5
1D5
330
1F
100
AcDbEntity
  8
1
  6
DASHDOT
 62
     7
370
     9
100
AcDbCircle
 10
702.3903577548807
 20
68.02760497667195
 30
0.0
 40
13.75
100
AcDbArc
 50
89.99999999999991
 51
180.0
  0
LINE
  5
1D6
330
1F
100
AcDbEntity
  8
1
  6
Continuous
 62
     7
370
     9
100
AcDbLine
 10
740.6403577548808
 20
55.27760497667195
 30
0.0
 11
774.3903577548808
 21
55.27760497667195
 31
0.0
  0
LINE
  5
1D7
330
1F
100
AcDbEntity
  8
1
  6
Continuous
 62
     7
370
     9
100
AcDbLine
 10
741.6403577548808
 20
49.77760497667195
 30
0.0
 11
773.3903577548808
 21
49.77760497667195
 31
0.0
  0
LINE
  5
1D8
330
1F
100
AcDbEntity
  8
1
  6
Continuous
 62
     7
370
     9
100
AcDbLine
 10
774.3903577548807
 20
55.27760497667195
 30
0.0
 11
774.3903577548807
 21
50.77760497667195
 31
0.0
  0
LINE
  5
1D9
330
1F
100
AcDbEntity
  8
1
  6
Continuous
 62
     7
370
     9
100
AcDbLine
 10
773.5903577548806
 20
55.73948519202371
 30
0.0
 11
774.3903577548806
 21
55.27760497667201
 31
0.0
  0
LINE
  5
1DA
330
1F
100
AcDbEntity
  8
1
  6
Continuous
 62
     7
370
     9
100
AcDbLine
 10
741.4403577548809
 20
55.71061767856418
 30
0.0
 11
773.5903577548808
 21
55.71061767856418
 31
0.0
  0
LINE
  5
1DB
330
1F
100
AcDbEntity
  8
1
  6
Continuous
 62
     7
370
     9
100
AcDbLine
 10
740.6403577548808
 20
55.27760497667195
 30
0.0
 11
740.6403577548808
 21
50.77760497667195
 31
0.0
  0
LINE
  5
1DC
330
1F
100
AcDbEntity
  8
1
  6
Continuous
 62
     7
370
     9
100
AcDbLine
 10
740.6403577548808
 20
55.27760497667195
 30
0.0
 11
741.3903577548808
 21
55.71061767856419
 31
0.0
  0
LINE
  5
1DD
330
1F
100
AcDbEntity
  8
1
  6
Continuous
 62
     7
370
     9
100
AcDbLine
 10
773.8903577548808
 20
76.78385888781244
 30
0.0
 11
773.8903577548808
 21
55.73948519202368
 31
0.0
  0
LINE
  5
1DE
330
1F
100
AcDbEntity
  8
1
  6
Continuous
 62
     7
370
     9
100
AcDbLine
 10
741.3903577548808
 20
76.78385888781244
 30
0.0
 11
741.3903577548808
 21
55.73948519202368
 31
0.0
  0
ARC
  5
1DF
330
1F
100
AcDbEntity
  8
1
  6
Continuous
 62
     7
370
     9
100
AcDbCircle
 10
773.3903577548807
 20
50.77760497667195
 30
0.0
 40
1.0
100
AcDbArc
 50
269.9999999999998
 51
0.0
  0
CIRCLE
  5
1E0
330
1F
100
AcDbEntity
  8
1
  6
Continuous
 62
     7
370
     9
100
AcDbCircle
 10
757.6403577548808
 20
81.77760497667195
 30
0.0
 40
17.0
  0
CIRCLE
  5
1E1
330
1F
100
AcDbEntity
  8
1
  6
Continuous
 62
     7
370
     9
100
AcDbCircle
 10
757.6403577548808
 20
81.77760497667195
 30
0.0
 40
11.99432220404513
  0
CIRCLE
  5
1E2
330
1F
100
AcDbEntity
  8
1
  6
Continuous
 62
     7
370
     9
100
AcDbCircle
 10
757.6403577548808
 20
81.77760497667195
 30
0.0
 40
13.20987096774194
  0
ARC
  5
1E3
330
1F
100
AcDbEntity
  8
1
  6
Continuous
 62
     7
370
     9
100
AcDbCircle
 10
741.6403577548808
 20
50.77760497667195
 30
0.0
 40
1.000000000000007
100
AcDbArc
 50
179.9999999999998
 51
269.9999999999998
  0
CIRCLE
  5
1E4
330
1F
100
AcDbEntity
  8
1
  6
Continuous
 62
     7
370
     9
100
AcDbCircle
 10
757.6403577548808
 20
81.77760497667195
 30
0.0
 40
13.55000000000001
  0
LINE
  5
1E5
330
1F
100
AcDbEntity
  8
1
  6
Continuous
 62
     7
370
     9
100
AcDbLine
 10
741.3903577548808
 20
150.777604976672
 30
0.0
 11
741.3903577548808
 21
124.7394851920237
 31
0.0
  0
LINE
  5
1E6
330
1F
100
AcDbEntity
  8
1
  6
Continuous
 62
     7
370
     9
100
AcDbLine
 10
773.8903577548808
 20
150.777604976672
 30
0.0
 11
773.8903577548808
 21
124.7394851920237
 31
0.0
  0
LINE
  5
1E7
330
1F
100
AcDbEntity
  8
1
  6
Continuous
 62
     7
370
     9
100
AcDbLine
 10
740.6403577548808
 20
124.277604976672
 30
0.0
 11
741.3903577548808
 21
124.7106176785642
 31
0.0
  0
LINE
  5
1E8
330
1F
100
AcDbEntity
  8
1
  6
Continuous
 62
     7
370
     9
100
AcDbLine
 10
740.6403577548808
 20
124.277604976672
 30
0.0
 11
740.6403577548808
 21
119.777604976672
 31
0.0
  0
LINE
  5
1E9
330
1F
100
AcDbEntity
  8
1
  6
Continuous
 62
     7
370
     9
100
AcDbLine
 10
741.4403577548809
 20
124.7106176785642
 30
0.0
 11
773.5903577548808
 21
124.7106176785642
 31
0.0
  0
LINE
  5
1EA
330
1F
100
AcDbEntity
  8
1
  6
Continuous
 62
     7
370
     9
100
AcDbLine
 10
773.5903577548806
 20
124.7394851920237
 30
0.0
 11
774.3903577548806
 21
124.277604976672
 31
0.0
  0
LINE
  5
1EB
330
1F
100
AcDbEntity
  8
1
  6
Continuous
 62
     7
370
     9
100
AcDbLine
 10
774.3903577548807
 20
124.277604976672
 30
0.0
 11
774.3903577548807
 21
119.777604976672
 31
0.0
  0
LINE
  5
1EC
330
1F
100
AcDbEntity
  8
1
  6
Continuous
 62
     7
370
     9
100
AcDbLine
 10
741.6403577548808
 20
118.777604976672
 30
0.0
 11
773.3903577548808
 21
118.777604976672
 31
0.0
  0
LINE
  5
1ED
330
1F
100
AcDbEntity
  8
1
  6
Continuous
 62
     7
370
     9
100
AcDbLine
 10
740.6403577548808
 20
124.277604976672
 30
0.0
 11
774.3903577548808
 21
124.277604976672
 31
0.0
  0
ARC
  5
1EE
330
1F
100
AcDbEntity
  8
1
  6
Continuous
 62
     7
370
     9
100
AcDbCircle
 10
741.6403577548808
 20
119.777604976672
 30
0.0
 40
1.000000000000007
100
AcDbArc
 50
179.9999999999998
 51
269.9999999999998
  0
ARC
  5
1EF
330
1F
100
AcDbEntity
  8
1
  6
Continuous
 62
     7
370
     9
100
AcDbCircle
 10
757.6403577548808
 20
150.777604976672
 30
0.0
 40
17.0
100
AcDbArc
 50
342.9174167565512
 51
197.0825832434496
  0
ARC
  5
1F0
330
1F
100
AcDbEntity
  8
1
  6
Continuous
 62
     7
370
     9
100
AcDbCircle
 10
773.3903577548807
 20
119.777604976672
 30
0.0
 40
1.0
100
AcDbArc
 50
269.9999999999998
 51
0.0
  0
ARC
  5
1F1
330
1F
100
AcDbEntity
  8
1
  6
Continuous
 62
     7
370
     9
100
AcDbCircle
 10
757.6403577548808
 20
150.777604976672
 30
0.0
 40
16.25
100
AcDbArc
 50
0.0
 51
179.9999999999998
  0
LINE
  5
1F2
330
1F
100
AcDbEntity
  8
1
  6
Continuous
 62
     7
370
     9
100
AcDbLine
 10
926.4284775395289
 20
107.4776049766725
 30
0.0
 11
926.8903577548807
 21
108.2776049766724
 31
0.0
  0
LINE
  5
1F3
330
1F
100
AcDbEntity
  8
1
  6
Continuous
 62
     7
370
     9
100
AcDbLine
 10
932.8903577548807
 20
107.2776049766724
 30
0.0
 11
932.8903577548807
 21
68.27760497667242
 31
0.0
  0
LINE
  5
1F4
330
1F
100
AcDbEntity
  8
1
  6
Continuous
 62
     7
370
     9
100
AcDbLine
 10
875.3903577548807
 20
49.77760497667248
 30
0.0
 11
914.3903577548806
 21
49.77760497667248
 31
0.0
  0
LINE
  5
1F5
330
1F
100
AcDbEntity
  8
1
  6
Continuous
 62
     7
370
     9
100
AcDbLine
 10
926.8903577548807
 20
67.27760497667242
 30
0.0
 11
931.8903577548807
 21
67.27760497667242
 31
0.0
  0
LINE
  5
1F6
330
1F
100
AcDbEntity
  8
1
  6
Continuous
 62
     7
370
     9
100
AcDbLine
 10
874.3903577548807
 20
55.77760497667248
 30
0.0
 11
874.3903577548807
 21
50.77760497667248
 31
0.0
  0
LINE
  5
1F7
330
1F
100
AcDbEntity
  8
1
  6
Continuous
 62
     7
370
     9
100
AcDbLine
 10
875.1903577548807
 20
56.23948519202412
 30
0.0
 11
874.3903577548807
 21
55.77760497667242
 31
0.0
  0
LINE
  5
1F8
330
1F
100
AcDbEntity
  8
1
  6
Continuous
 62
     7
370
     9
100
AcDbLine
 10
915.3903577548807
 20
55.77760497667248
 30
0.0
 11
915.3903577548807
 21
50.77760497667248
 31
0.0
  0
LINE
  5
1F9
330
1F
100
AcDbEntity
  8
1
  6
Continuous
 62
     7
370
     9
100
AcDbLine
 10
926.8903577548807
 20
108.2776049766724
 30
0.0
 11
931.8903577548807
 21
108.2776049766724
 31
0.0
  0
LINE
  5
1FA
330
1F
100
AcDbEntity
  8
1
  6
Continuous
 62
     7
370
     9
100
AcDbLine
 10
926.428477539529
 20
68.07760497667243
 30
0.0
 11
926.8903577548807
 21
67.27760497667242
 31
0.0
  0
LINE
  5
1FB
330
1F
100
AcDbEntity
  8
1
  6
Continuous
 62
     7
370
     9
100
AcDbLine
 10
914.5903577548808
 20
56.23948519202435
 30
0.0
 11
915.3903577548807
 21
55.77760497667265
 31
0.0
  0
LINE
  5
1FC
330
1F
100
AcDbEntity
  8
1
  6
Continuous
 62
     7
370
     9
100
AcDbLine
 10
875.1903577548807
 20
70.67760662848485
 30
0.0
 11
875.1903577548807
 21
56.23948519202412
 31
0.0
  0
LINE
  5
1FD
330
1F
100
AcDbEntity
  8
1
  6
Continuous
 62
     7
370
     9
100
AcDbLine
 10
911.9903577548806
 20
107.4776049766725
 30
0.0
 11
926.428477539529
 21
107.4776049766725
 31
0.0
  0
LINE
  5
1FE
330
1F
100
AcDbEntity
  8
1
  6
Continuous
 62
     7
370
     9
100
AcDbLine
 10
918.5903577548806
 20
68.07760497667243
 30
0.0
 11
926.428477539529
 21
68.07760497667243
 31
0.0
  0
LINE
  5
1FF
330
1F
100
AcDbEntity
  8
1
  6
Continuous
 62
     7
370
     9
100
AcDbLine
 10
914.5903577548808
 20
64.07760497667249
 30
0.0
 11
914.5903577548806
 21
56.23948519202429
 31
0.0
  0
LINE
  5
200
330
1F
100
AcDbEntity
  8
1
  6
Continuous
 62
     7
370
     9
100
AcDbLine
 10
926.8903577548807
 20
108.2776049766724
 30
0.0
 11
926.8903577548807
 21
67.27760497667242
 31
0.0
  0
LINE
  5
201
330
1F
100
AcDbEntity
  8
1
  6
Continuous
 62
     7
370
     9
100
AcDbLine
 10
926.428477539529
 20
107.4776049766725
 30
0.0
 11
926.428477539529
 21
68.07760497667243
 31
0.0
  0
LINE
  5
202
330
1F
100
AcDbEntity
  8
1
  6
Continuous
 62
     7
370
     9
100
AcDbLine
 10
874.3903577548807
 20
55.77760497667242
 30
0.0
 11
915.3903577548807
 21
55.77760497667242
 31
0.0
  0
LINE
  5
203
330
1F
100
AcDbEntity
  8
1
  6
Continuous
 62
     7
370
     9
100
AcDbLine
 10
875.1903577548807
 20
56.23948519202412
 30
0.0
 11
914.5903577548808
 21
56.23948519202412
 31
0.0
  0
LINE
  5
204
330
1F
100
AcDbEntity
  8
1
  6
Continuous
 62
     7
370
     9
100
AcDbLine
 10
900.8653794186752
 20
81.80258331287803
 30
0.0
 11
915.0548238489479
 21
67.6131388826052
 31
0.0
  0
ARC
  5
205
330
1F
100
AcDbEntity
  8
1
  6
Continuous
 62
     7
370
     9
100
AcDbCircle
 10
931.8903577548807
 20
107.2776049766724
 30
0.0
 40
1.0
100
AcDbArc
 50
0.0
 51
89.99999999999991
  0
ARC
  5
206
330
1F
100
AcDbEntity
  8
1
  6
Continuous
 62
     7
370
     9
100
AcDbCircle
 10
918.5903577548806
 20
64.07760497667243
 30
0.0
 40
4.0
100
AcDbArc
 50
89.99999999999991
 51
179.9999999999998
  0
ARC
  5
207
330
1F
100
AcDbEntity
  8
1
  6
Continuous
 62
     7
370
     9
100
AcDbCircle
 10
931.8903577548807
 20
68.27760497667242
 30
0.0
 40
1.0
100
AcDbArc
 50
269.9999999999998
 51
0.0
  0
ARC
  5
208
330
1F
100
AcDbEntity
  8
1
  6
Continuous
 62
     7
370
     9
100
AcDbCircle
 10
914.3903577548807
 20
50.77760497667248
 30
0.0
 40
1.0
100
AcDbArc
 50
269.9999999999998
 51
0.0
  0
ARC
  5
209
330
1F
100
AcDbEntity
  8
1
  6
Continuous
 62
     7
370
     9
100
AcDbCircle
 10
875.3903577548807
 20
50.77760497667248
 30
0.0
 40
1.0
100
AcDbArc
 50
179.9999999999998
 51
269.9999999999998
  0
ARC
  5
20A
330
1F
100
AcDbEntity
  8
1
  6
Continuous
 62
     7
370
     9
100
AcDbCircle
 10
911.9903577548806
 20
70.67760497667246
 30
0.0
 40
36.8
100
AcDbArc
 50
89.99999999999991
 51
180.0000025858439
  0
ARC
  5
20B
330
1F
100
AcDbEntity
  8
1
  6
DASHDOT
 62
     7
370
     9
100
AcDbCircle
 10
911.9903577548806
 20
70.67760497667246
 30
0.0
 40
17.1
100
AcDbArc
 50
89.99999999999991
 51
180.0
  0
LINE
  5
20C
330
1F
100
AcDbEntity
  8
1
  6
Continuous
 62
     7
370
     9
100
AcDbLine
 10
953.6903577548807
 20
56.23948519202418
 30
0.0
 11
993.0903577548808
 21
56.23948519202406
 31
0.0
  0
LINE
  5
20D
330
1F
100
AcDbEntity
  8
1
  6
Continuous
 62
     7
370
     9
100
AcDbLine
 10
952.8903577548807
 20
55.77760497667248
 30
0.0
 11
952.8903577548807
 21
50.77760497667248
 31
0.0
  0
LINE
  5
20E
330
1F
100
AcDbEntity
  8
1
  6
Continuous
 62
     7
370
     9
100
AcDbLine
 10
952.8903577548806
 20
55.77760497667248
 30
0.0
 11
993.8903577548807
 21
55.77760497667231
 31
0.0
  0
LINE
  5
20F
330
1F
100
AcDbEntity
  8
1
  6
Continuous
 62
     7
370
     9
100
AcDbLine
 10
954.1403577548807
 20
49.77760497667191
 30
0.0
 11
992.6403577548805
 21
49.77760497667174
 31
0.0
  0
LINE
  5
210
330
1F
100
AcDbEntity
  8
1
  6
Continuous
 62
     7
370
     9
100
AcDbLine
 10
993.0903577548808
 20
82.10662622516935
 30
0.0
 11
993.0903577548808
 21
56.23948519202423
 31
0.0
  0
LINE
  5
211
330
1F
100
AcDbEntity
  8
1
  6
Continuous
 62
     7
370
     9
100
AcDbLine
 10
953.6903577548807
 20
56.23948519202423
 30
0.0
 11
952.8903577548806
 21
55.77760497667254
 31
0.0
  0
LINE
  5
212
330
1F
100
AcDbEntity
  8
1
  6
Continuous
 62
     7
370
     9
100
AcDbLine
 10
993.8903577548807
 20
55.77760497667248
 30
0.0
 11
993.8903577548807
 21
50.77760497667248
 31
0.0
  0
LINE
  5
213
330
1F
100
AcDbEntity
  8
1
  6
Continuous
 62
     7
370
     9
100
AcDbLine
 10
993.0903577548808
 20
56.23948519202423
 30
0.0
 11
993.8903577548807
 21
55.77760497667248
 31
0.0
  0
LINE
  5
214
330
1F
100
AcDbEntity
  8
1
  6
Continuous
 62
     7
370
     9
100
AcDbLine
 10
953.6903577548807
 20
82.10662622516935
 30
0.0
 11
953.6903577548807
 21
56.23948519202423
 31
0.0
  0
ARC
  5
215
330
1F
100
AcDbEntity
  8
1
  6
Continuous
 62
     7
370
     9
100
AcDbCircle
 10
953.8903577548807
 20
50.77760497667248
 30
0.0
 40
1.0
100
AcDbArc
 50
179.9999999999998
 51
269.9999999999998
  0
ARC
  5
216
330
1F
100
AcDbEntity
  8
1
  6
Continuous
 62
     7
370
     9
100
AcDbCircle
 10
992.8903577548807
 20
50.77760497667248
 30
0.0
 40
1.0
100
AcDbArc
 50
269.9999999999998
 51
0.0
  0
CIRCLE
  5
217
330
1F
100
AcDbEntity
  8
1
  6
Continuous
 62
     7
370
     9
100
AcDbCircle
 10
973.3903577548807
 20
87.77760497667242
 30
0.0
 40
20.5
  0
CIRCLE
  5
218
330
1F
100
AcDbEntity
  8
1
  6
Continuous
 62
     7
370
     9
100
AcDbCircle
 10
973.3903577548807
 20
87.77760497667242
 30
0.0
 40
15.08406451612903
  0
CIRCLE
  5
219
330
1F
100
AcDbEntity
  8
1
  6
Continuous
 62
     7
370
     9
100
AcDbCircle
 10
973.3903577548807
 20
87.77760497667242
 30
0.0
 40
17.05000000000001
  0
CIRCLE
  5
21A
330
1F
100
AcDbEntity
  8
1
  6
Continuous
 62
     7
370
     9
100
AcDbCircle
 10
973.3903577548807
 20
87.77760497667242
 30
0.0
 40
16.61077419354839
  0
LINE
  5
21B
330
1F
100
AcDbEntity
  8
1
  6
Continuous
 62
     7
370
     9
100
AcDbLine
 10
953.6903577548807
 20
166.2251997821089
 30
0.0
 11
953.6903577548807
 21
134.6870799974608
 31
0.0
  0
LINE
  5
21C
330
1F
100
AcDbEntity
  8
1
  6
Continuous
 62
     7
370
     9
100
AcDbLine
 10
993.0903577548808
 20
134.6870799974607
 30
0.0
 11
993.8903577548807
 21
134.2251997821089
 31
0.0
  0
LINE
  5
21D
330
1F
100
AcDbEntity
  8
1
  6
Continuous
 62
     7
370
     9
100
AcDbLine
 10
993.8903577548807
 20
134.2251997821089
 30
0.0
 11
993.8903577548807
 21
129.2251997821089
 31
0.0
  0
LINE
  5
21E
330
1F
100
AcDbEntity
  8
1
  6
Continuous
 62
     7
370
     9
100
AcDbLine
 10
953.6903577548807
 20
134.6870799974608
 30
0.0
 11
952.8903577548806
 21
134.2251997821091
 31
0.0
  0
LINE
  5
21F
330
1F
100
AcDbEntity
  8
1
  6
Continuous
 62
     7
370
     9
100
AcDbLine
 10
993.0903577548808
 20
166.2251997821089
 30
0.0
 11
993.0903577548808
 21
134.6870799974608
 31
0.0
  0
LINE
  5
220
330
1F
100
AcDbEntity
  8
1
  6
Continuous
 62
     7
370
     9
100
AcDbLine
 10
954.1403577548807
 20
128.2251997821084
 30
0.0
 11
992.6403577548805
 21
128.2251997821083
 31
0.0
  0
LINE
  5
221
330
1F
100
AcDbEntity
  8
1
  6
Continuous
 62
     7
370
     9
100
AcDbLine
 10
952.8903577548806
 20
134.225199782109
 30
0.0
 11
993.8903577548807
 21
134.2251997821088
 31
0.0
  0
LINE
  5
222
330
1F
100
AcDbEntity
  8
1
  6
Continuous
 62
     7
370
     9
100
AcDbLine
 10
952.8903577548807
 20
134.2251997821089
 30
0.0
 11
952.8903577548807
 21
129.2251997821089
 31
0.0
  0
LINE
  5
223
330
1F
100
AcDbEntity
  8
1
  6
Continuous
 62
     7
370
     9
100
AcDbLine
 10
953.6903577548807
 20
134.6870799974608
 30
0.0
 11
993.0903577548808
 21
134.6870799974606
 31
0.0
  0
ARC
  5
224
330
1F
100
AcDbEntity
  8
1
  6
Continuous
 62
     7
370
     9
100
AcDbCircle
 10
973.3903577548807
 20
166.2251997821089
 30
0.0
 40
20.5
100
AcDbArc
 50
343.9406394860069
 51
196.0593605139939
  0
ARC
  5
225
330
1F
100
AcDbEntity
  8
1
  6
Continuous
 62
     7
370
     9
100
AcDbCircle
 10
992.8903577548807
 20
129.225199782109
 30
0.0
 40
1.0
100
AcDbArc
 50
269.9999999999998
 51
0.0
  0
ARC
  5
226
330
1F
100
AcDbEntity
  8
1
  6
Continuous
 62
     7
370
     9
100
AcDbCircle
 10
953.8903577548807
 20
129.225199782109
 30
0.0
 40
1.0
100
AcDbArc
 50
179.9999999999998
 51
269.9999999999998
  0
ARC
  5
227
330
1F
100
AcDbEntity
  8
1
  6
Continuous
 62
     7
370
     9
100
AcDbCircle
 10
973.3903577548807
 20
166.2251997821089
 30
0.0
 40
19.69999999999999
100
AcDbArc
 50
0.0
 51
179.9999999999998
  0
LINE
  5
228
330
1F
100
AcDbEntity
  8
1
  6
Continuous
 62
     7
370
     9
100
AcDbLine
 10
30.64439016853999
 20
280.6170807789473
 30
0.0
 11
30.64439016853999
 21
275.6170807789473
 31
0.0
  0
LINE
  5
229
330
1F
100
AcDbEntity
  8
1
  6
Continuous
 62
     7
370
     9
100
AcDbLine
 10
32.64439016853999
 20
273.6170807789473
 30
0.0
 11
79.64439016853999
 21
273.6170807789473
 31
0.0
  0
LINE
  5
22A
330
1F
100
AcDbEntity
  8
1
  6
Continuous
 62
     7
370
     9
100
AcDbLine
 10
81.64439016853999
 20
280.6170807789473
 30
0.0
 11
81.64439016853999
 21
275.6170807789473
 31
0.0
  0
LINE
  5
22B
330
1F
100
AcDbEntity
  8
1
  6
Continuous
 62
     7
370
     9
100
AcDbLine
 10
80.64439016853999
 20
281.6170807789473
 30
0.0
 11
81.64439016853999
 21
280.6170807789473
 31
0.0
  0
LINE
  5
22C
330
1F
100
AcDbEntity
  8
1
  6
Continuous
 62
     7
370
     9
100
AcDbLine
 10
31.64439016853999
 20
298.2170807789473
 30
0.0
 11
31.64439016853999
 21
281.6170807789473
 31
0.0
  0
LINE
  5
22D
330
1F
100
AcDbEntity
  8
1
  6
Continuous
 62
     7
370
     9
100
AcDbLine
 10
30.64439016853999
 20
280.6170807789473
 30
0.0
 11
31.64439016853999
 21
281.6170807789473
 31
0.0
  0
LINE
  5
22E
330
1F
100
AcDbEntity
  8
1
  6
Continuous
 62
     7
370
     9
100
AcDbLine
 10
77.54439016853996
 20
344.1170807789473
 30
0.0
 11
94.14439016853999
 21
344.1170807789473
 31
0.0
  0
LINE
  5
22F
330
1F
100
AcDbEntity
  8
1
  6
Continuous
 62
     7
370
     9
100
AcDbLine
 10
80.64439016853999
 20
289.1170807789473
 30
0.0
 11
80.64439016853999
 21
281.6170807789473
 31
0.0
  0
LINE
  5
230
330
1F
100
AcDbEntity
  8
1
  6
Continuous
 62
     7
370
     9
100
AcDbLine
 10
95.14439016853999
 20
294.1170807789473
 30
0.0
 11
94.14439016853999
 21
295.1170807789473
 31
0.0
  0
LINE
  5
231
330
1F
100
AcDbEntity
  8
1
  6
Continuous
 62
     7
370
     9
100
AcDbLine
 10
86.64439016853999
 20
295.1170807789473
 30
0.0
 11
94.14439016853999
 21
295.1170807789473
 31
0.0
  0
LINE
  5
232
330
1F
100
AcDbEntity
  8
1
  6
Continuous
 62
     7
370
     9
100
AcDbLine
 10
94.14439016853999
 20
344.1170807789473
 30
0.0
 11
95.14439016853999
 21
345.1170807789473
 31
0.0
  0
LINE
  5
233
330
1F
100
AcDbEntity
  8
1
  6
Continuous
 62
     7
370
     9
100
AcDbLine
 10
102.14439016854
 20
296.1170807789473
 30
0.0
 11
102.14439016854
 21
343.1170807789473
 31
0.0
  0
LINE
  5
234
330
1F
100
AcDbEntity
  8
1
  6
Continuous
 62
     7
370
     9
100
AcDbLine
 10
95.14439016853999
 20
294.1170807789473
 30
0.0
 11
100.14439016854
 21
294.1170807789473
 31
0.0
  0
LINE
  5
235
330
1F
100
AcDbEntity
  8
1
  6
Continuous
 62
     7
370
     9
100
AcDbLine
 10
95.14439016853999
 20
345.1170807789473
 30
0.0
 11
100.14439016854
 21
345.1170807789473
 31
0.0
  0
LINE
  5
236
330
1F
100
AcDbEntity
  8
1
  6
Continuous
 62
     7
370
     9
100
AcDbLine
 10
95.14439016853999
 20
294.1170807789473
 30
0.0
 11
95.14439016853999
 21
345.1170807789473
 31
0.0
  0
LINE
  5
237
330
1F
100
AcDbEntity
  8
1
  6
Continuous
 62
     7
370
     9
100
AcDbLine
 10
30.64439016853999
 20
280.6170807789473
 30
0.0
 11
81.64439016853999
 21
280.6170807789473
 31
0.0
  0
LINE
  5
238
330
1F
100
AcDbEntity
  8
1
  6
Continuous
 62
     7
370
     9
100
AcDbLine
 10
31.64439016853999
 20
281.6170807789473
 30
0.0
 11
80.64439016853999
 21
281.6170807789473
 31
0.0
  0
LINE
  5
239
330
1F
100
AcDbEntity
  8
1
  6
Continuous
 62
     7
370
     9
100
AcDbLine
 10
94.14439016853999
 20
295.1170807789473
 30
0.0
 11
94.14439016853999
 21
344.1170807789473
 31
0.0
  0
LINE
  5
23A
330
1F
100
AcDbEntity
  8
1
  6
Continuous
 62
     7
370
     9
100
AcDbLine
 10
63.74496919674908
 20
312.0165017507382
 30
0.0
 11
80.98753591904762
 21
294.7739350284397
 31
0.0
  0
ARC
  5
23B
330
1F
100
AcDbEntity
  8
1
  6
Continuous
 62
     7
370
     9
100
AcDbCircle
 10
100.14439016854
 20
343.1170807789473
 30
0.0
 40
2.0
100
AcDbArc
 50
0.0
 51
89.99999999999991
  0
ARC
  5
23C
330
1F
100
AcDbEntity
  8
1
  6
Continuous
 62
     7
370
     9
100
AcDbCircle
 10
100.14439016854
 20
296.1170807789473
 30
0.0
 40
2.0
100
AcDbArc
 50
269.9999999999998
 51
0.0
  0
ARC
  5
23D
330
1F
100
AcDbEntity
  8
1
  6
Continuous
 62
     7
370
     9
100
AcDbCircle
 10
79.64439016853999
 20
275.6170807789473
 30
0.0
 40
2.0
100
AcDbArc
 50
269.9999999999998
 51
0.0
  0
ARC
  5
23E
330
1F
100
AcDbEntity
  8
1
  6
Continuous
 62
     7
370
     9
100
AcDbCircle
 10
32.64439016853999
 20
275.6170807789473
 30
0.0
 40
2.0
100
AcDbArc
 50
179.9999999999998
 51
269.9999999999998
  0
ARC
  5
23F
330
1F
100
AcDbEntity
  8
1
  6
Continuous
 62
     7
370
     9
100
AcDbCircle
 10
77.54439016853996
 20
298.2170807789473
 30
0.0
 40
45.89999999999999
100
AcDbArc
 50
89.99999999999991
 51
179.9999999999998
  0
ARC
  5
240
330
1F
100
AcDbEntity
  8
1
  6
Continuous
 62
     7
370
     9
100
AcDbCircle
 10
86.64439016853999
 20
289.1170807789473
 30
0.0
 40
6.0
100
AcDbArc
 50
89.99999999999991
 51
180.0000000000002
  0
ARC
  5
241
330
1F
100
AcDbEntity
  8
1
  6
DASHDOT
 62
     7
370
     9
100
AcDbCircle
 10
77.54439016853996
 20
298.2170807789473
 30
0.0
 40
21.4
100
AcDbArc
 50
89.99999999999991
 51
180.0000000000001
  0
LINE
  5
242
330
1F
100
AcDbEntity
  8
1
  6
Continuous
 62
     7
370
     9
100
AcDbLine
 10
172.14439016854
 20
312.5460129670818
 30
0.0
 11
172.14439016854
 21
281.6170807789473
 31
0.0
  0
LINE
  5
243
330
1F
100
AcDbEntity
  8
1
  6
Continuous
 62
     7
370
     9
100
AcDbLine
 10
123.14439016854
 20
312.5460129670818
 30
0.0
 11
123.14439016854
 21
281.6170807789473
 31
0.0
  0
LINE
  5
244
330
1F
100
AcDbEntity
  8
1
  6
Continuous
 62
     7
370
     9
100
AcDbLine
 10
122.14439016854
 20
280.6170807789473
 30
0.0
 11
173.14439016854
 21
280.6170807789473
 31
0.0
  0
LINE
  5
245
330
1F
100
AcDbEntity
  8
1
  6
Continuous
 62
     7
370
     9
100
AcDbLine
 10
123.14439016854
 20
281.6170807789473
 30
0.0
 11
172.14439016854
 21
281.6170807789473
 31
0.0
  0
LINE
  5
246
330
1F
100
AcDbEntity
  8
1
  6
Continuous
 62
     7
370
     9
100
AcDbLine
 10
122.14439016854
 20
280.6170807789473
 30
0.0
 11
122.14439016854
 21
275.6170807789473
 31
0.0
  0
LINE
  5
247
330
1F
100
AcDbEntity
  8
1
  6
Continuous
 62
     7
370
     9
100
AcDbLine
 10
124.14439016854
 20
273.6170807789473
 30
0.0
 11
171.14439016854
 21
273.6170807789473
 31
0.0
  0
LINE
  5
248
330
1F
100
AcDbEntity
  8
1
  6
Continuous
 62
     7
370
     9
100
AcDbLine
 10
173.14439016854
 20
280.6170807789473
 30
0.0
 11
173.14439016854
 21
275.6170807789473
 31
0.0
  0
LINE
  5
249
330
1F
100
AcDbEntity
  8
1
  6
Continuous
 62
     7
370
     9
100
AcDbLine
 10
172.14439016854
 20
281.6170807789473
 30
0.0
 11
173.14439016854
 21
280.6170807789473
 31
0.0
  0
LINE
  5
24A
330
1F
100
AcDbEntity
  8
1
  6
Continuous
 62
     7
370
     9
100
AcDbLine
 10
122.14439016854
 20
280.6170807789473
 30
0.0
 11
123.14439016854
 21
281.6170807789473
 31
0.0
  0
CIRCLE
  5
24B
330
1F
100
AcDbEntity
  8
1
  6
Continuous
 62
     7
370
     9
100
AcDbCircle
 10
147.64439016854
 20
319.6170807789473
 30
0.0
 40
21.40000000000001
  0
ARC
  5
24C
330
1F
100
AcDbEntity
  8
1
  6
Continuous
 62
     7
370
     9
100
AcDbCircle
 10
171.14439016854
 20
275.6170807789473
 30
0.0
 40
2.0
100
AcDbArc
 50
269.9999999999998
 51
0.0
  0
ARC
  5
24D
330
1F
100
AcDbEntity
  8
1
  6
Continuous
 62
     7
370
     9
100
AcDbCircle
 10
124.14439016854
 20
275.6170807789473
 30
0.0
 40
2.0
100
AcDbArc
 50
179.9999999999998
 51
269.9999999999998
  0
CIRCLE
  5
24E
330
1F
100
AcDbEntity
  8
1
  6
Continuous
 62
     7
370
     9
100
AcDbCircle
 10
147.64439016854
 20
319.6170807789473
 30
0.0
 40
25.5
  0
CIRCLE
  5
24F
330
1F
100
AcDbEntity
  8
1
  6
Continuous
 62
     7
370
     9
100
AcDbCircle
 10
147.64439016854
 20
319.6170807789473
 30
0.0
 40
19.41393228216759
  0
CIRCLE
  5
250
330
1F
100
AcDbEntity
  8
1
  6
Continuous
 62
     7
370
     9
100
AcDbCircle
 10
147.64439016854
 20
319.6170807789473
 30
0.0
 40
18.93739072175812
  0
LINE
  5
251
330
1F
100
AcDbEntity
  8
1
  6
Continuous
 62
     7
370
     9
100
AcDbLine
 10
330.14439016854
 20
282.6170807789473
 30
0.0
 11
331.64439016854
 21
281.1170807789473
 31
0.0
  0
LINE
  5
252
330
1F
100
AcDbEntity
  8
1
  6
Continuous
 62
     7
370
     9
100
AcDbLine
 10
350.39439016854
 20
294.3670807789473
 30
0.0
 11
350.39439016854
 21
348.8670807789473
 31
0.0
  0
LINE
  5
253
330
1F
100
AcDbEntity
  8
1
  6
Continuous
 62
     7
370
     9
100
AcDbLine
 10
342.89439016854
 20
350.8670807789473
 30
0.0
 11
348.39439016854
 21
350.8670807789473
 31
0.0
  0
LINE
  5
254
330
1F
100
AcDbEntity
  8
1
  6
Continuous
 62
     7
370
     9
100
AcDbLine
 10
275.14439016854
 20
273.6170807789473
 30
0.0
 11
329.64439016854
 21
273.6170807789473
 31
0.0
  0
LINE
  5
255
330
1F
100
AcDbEntity
  8
1
  6
Continuous
 62
     7
370
     9
100
AcDbLine
 10
342.89439016854
 20
292.3670807789473
 30
0.0
 11
348.39439016854
 21
292.3670807789473
 31
0.0
  0
LINE
  5
256
330
1F
100
AcDbEntity
  8
1
  6
Continuous
 62
     7
370
     9
100
AcDbLine
 10
273.14439016854
 20
281.1170807789473
 30
0.0
 11
274.6443901685399
 21
282.6170807789473
 31
0.0
  0
LINE
  5
257
330
1F
100
AcDbEntity
  8
1
  6
Continuous
 62
     7
370
     9
100
AcDbLine
 10
326.7443890005322
 20
349.3670807789473
 30
0.0
 11
341.39439016854
 21
349.3670807789473
 31
0.0
  0
LINE
  5
258
330
1F
100
AcDbEntity
  8
1
  6
Continuous
 62
     7
370
     9
100
AcDbLine
 10
273.14439016854
 20
281.1170807789473
 30
0.0
 11
273.14439016854
 21
275.6170807789473
 31
0.0
  0
LINE
  5
259
330
1F
100
AcDbEntity
  8
1
  6
Continuous
 62
     7
370
     9
100
AcDbLine
 10
274.64439016854
 20
297.2670807789473
 30
0.0
 11
274.64439016854
 21
282.6170807789473
 31
0.0
  0
LINE
  5
25A
330
1F
100
AcDbEntity
  8
1
  6
Continuous
 62
     7
370
     9
100
AcDbLine
 10
331.64439016854
 20
281.1170807789473
 30
0.0
 11
331.64439016854
 21
275.6170807789473
 31
0.0
  0
LINE
  5
25B
330
1F
100
AcDbEntity
  8
1
  6
Continuous
 62
     7
370
     9
100
AcDbLine
 10
342.89439016854
 20
292.3670807789473
 30
0.0
 11
341.39439016854
 21
293.8670807789473
 31
0.0
  0
LINE
  5
25C
330
1F
100
AcDbEntity
  8
1
  6
Continuous
 62
     7
370
     9
100
AcDbLine
 10
330.14439016854
 20
286.8670807789473
 30
0.0
 11
330.14439016854
 21
282.6170807789473
 31
0.0
  0
LINE
  5
25D
330
1F
100
AcDbEntity
  8
1
  6
Continuous
 62
     7
370
     9
100
AcDbLine
 10
341.39439016854
 20
349.3670807789473
 30
0.0
 11
342.89439016854
 21
350.8670807789473
 31
0.0
  0
LINE
  5
25E
330
1F
100
AcDbEntity
  8
1
  6
Continuous
 62
     7
370
     9
100
AcDbLine
 10
337.14439016854
 20
293.8670807789473
 30
0.0
 11
341.39439016854
 21
293.8670807789473
 31
0.0
  0
LINE
  5
25F
330
1F
100
AcDbEntity
  8
1
  6
Continuous
 62
     7
370
     9
100
AcDbLine
 10
273.14439016854
 20
281.1170807789473
 30
0.0
 11
331.64439016854
 21
281.1170807789473
 31
0.0
  0
LINE
  5
260
330
1F
100
AcDbEntity
  8
1
  6
Continuous
 62
     7
370
     9
100
AcDbLine
 10
274.64439016854
 20
282.6170807789473
 30
0.0
 11
330.14439016854
 21
282.6170807789473
 31
0.0
  0
LINE
  5
261
330
1F
100
AcDbEntity
  8
1
  6
Continuous
 62
     7
370
     9
100
AcDbLine
 10
342.89439016854
 20
292.3670807789473
 30
0.0
 11
342.89439016854
 21
350.8670807789473
 31
0.0
  0
LINE
  5
262
330
1F
100
AcDbEntity
  8
1
  6
Continuous
 62
     7
370
     9
100
AcDbLine
 10
341.39439016854
 20
293.8670807789473
 30
0.0
 11
341.39439016854
 21
349.3670807789473
 31
0.0
  0
LINE
  5
263
330
1F
100
AcDbEntity
  8
1
  6
Continuous
 62
     7
370
     9
100
AcDbLine
 10
311.0493847844775
 20
312.9620861630098
 30
0.0
 11
330.7804291378611
 21
293.2310418096262
 31
0.0
  0
ARC
  5
264
330
1F
100
AcDbEntity
  8
1
  6
Continuous
 62
     7
370
     9
100
AcDbCircle
 10
348.39439016854
 20
294.3670807789473
 30
0.0
 40
2.0
100
AcDbArc
 50
269.9999999999998
 51
0.0
  0
ARC
  5
265
330
1F
100
AcDbEntity
  8
1
  6
Continuous
 62
     7
370
     9
100
AcDbCircle
 10
329.64439016854
 20
275.6170807789473
 30
0.0
 40
2.0
100
AcDbArc
 50
269.9999999999998
 51
0.0
  0
ARC
  5
266
330
1F
100
AcDbEntity
  8
1
  6
Continuous
 62
     7
370
     9
100
AcDbCircle
 10
337.14439016854
 20
286.8670807789473
 30
0.0
 40
7.0
100
AcDbArc
 50
89.99999999999991
 51
180.0000000000001
  0
ARC
  5
267
330
1F
100
AcDbEntity
  8
1
  6
Continuous
 62
     7
370
     9
100
AcDbCircle
 10
348.39439016854
 20
348.8670807789473
 30
0.0
 40
2.0
100
AcDbArc
 50
0.0
 51
89.99999999999991
  0
ARC
  5
268
330
1F
100
AcDbEntity
  8
1
  6
Continuous
 62
     7
370
     9
100
AcDbCircle
 10
275.14439016854
 20
275.6170807789473
 30
0.0
 40
2.0
100
AcDbArc
 50
179.9999999999998
 51
269.9999999999998
  0
ARC
  5
269
330
1F
100
AcDbEntity
  8
1
  6
Continuous
 62
     7
370
     9
100
AcDbCircle
 10
326.74439016854
 20
297.2670807789473
 30
0.0
 40
52.10000000000001
100
AcDbArc
 50
89.99999871551026
 51
180.0
  0
ARC
  5
26A
330
1F
100
AcDbEntity
  8
1
  6
DASHDOT
 62
     7
370
     9
100
AcDbCircle
 10
326.74439016854
 20
297.2670807789473
 30
0.0
 40
24.34999999999999
100
AcDbArc
 50
89.99999999999991
 51
179.9999999999999
  0
LINE
  5
26B
330
1F
100
AcDbEntity
  8
1
  6
Continuous
 62
     7
370
     9
100
AcDbLine
 10
370.39439016854
 20
281.1170807789473
 30
0.0
 11
428.89439016854
 21
281.1170807789473
 31
0.0
  0
LINE
  5
26C
330
1F
100
AcDbEntity
  8
1
  6
Continuous
 62
     7
370
     9
100
AcDbLine
 10
370.39439016854
 20
281.1170807789473
 30
0.0
 11
371.89439016854
 21
282.6170807789473
 31
0.0
  0
LINE
  5
26D
330
1F
100
AcDbEntity
  8
1
  6
Continuous
 62
     7
370
     9
100
AcDbLine
 10
427.39439016854
 20
282.6170807789473
 30
0.0
 11
428.89439016854
 21
281.1170807789473
 31
0.0
  0
LINE
  5
26E
330
1F
100
AcDbEntity
  8
1
  6
Continuous
 62
     7
370
     9
100
AcDbLine
 10
372.39439016854
 20
273.6170807789473
 30
0.0
 11
426.89439016854
 21
273.6170807789473
 31
0.0
  0
LINE
  5
26F
330
1F
100
AcDbEntity
  8
1
  6
Continuous
 62
     7
370
     9
100
AcDbLine
 10
428.89439016854
 20
281.1170807789473
 30
0.0
 11
428.89439016854
 21
275.6170807789473
 31
0.0
  0
LINE
  5
270
330
1F
100
AcDbEntity
  8
1
  6
Continuous
 62
     7
370
     9
100
AcDbLine
 10
371.89439016854
 20
282.6170807789473
 30
0.0
 11
427.39439016854
 21
282.6170807789473
 31
0.0
  0
LINE
  5
271
330
1F
100
AcDbEntity
  8
1
  6
Continuous
 62
     7
370
     9
100
AcDbLine
 10
370.39439016854
 20
281.1170807789473
 30
0.0
 11
370.39439016854
 21
275.6170807789473
 31
0.0
  0
LINE
  5
272
330
1F
100
AcDbEntity
  8
1
  6
Continuous
 62
     7
370
     9
100
AcDbLine
 10
427.39439016854
 20
312.3704597744938
 30
0.0
 11
427.39439016854
 21
282.6170807789473
 31
0.0
  0
LINE
  5
273
330
1F
100
AcDbEntity
  8
1
  6
Continuous
 62
     7
370
     9
100
AcDbLine
 10
371.89439016854
 20
312.3704597744938
 30
0.0
 11
371.89439016854
 21
282.6170807789473
 31
0.0
  0
CIRCLE
  5
274
330
1F
100
AcDbEntity
  8
1
  6
Continuous
 62
     7
370
     9
100
AcDbCircle
 10
399.64439016854
 20
321.6170807789473
 30
0.0
 40
29.25
  0
CIRCLE
  5
275
330
1F
100
AcDbEntity
  8
1
  6
Continuous
 62
     7
370
     9
100
AcDbCircle
 10
399.64439016854
 20
321.6170807789473
 30
0.0
 40
21.85442364462138
  0
CIRCLE
  5
276
330
1F
100
AcDbEntity
  8
1
  6
Continuous
 62
     7
370
     9
100
AcDbCircle
 10
399.64439016854
 20
321.6170807789473
 30
0.0
 40
22.36031937311749
  0
ARC
  5
277
330
1F
100
AcDbEntity
  8
1
  6
Continuous
 62
     7
370
     9
100
AcDbCircle
 10
426.89439016854
 20
275.6170807789473
 30
0.0
 40
2.0
100
AcDbArc
 50
269.9999999999998
 51
0.0
  0
ARC
  5
278
330
1F
100
AcDbEntity
  8
1
  6
Continuous
 62
     7
370
     9
100
AcDbCircle
 10
372.39439016854
 20
275.6170807789473
 30
0.0
 40
2.0
100
AcDbArc
 50
179.9999999999998
 51
269.9999999999998
  0
CIRCLE
  5
279
330
1F
100
AcDbEntity
  8
1
  6
Continuous
 62
     7
370
     9
100
AcDbCircle
 10
399.64439016854
 20
321.6170807789473
 30
0.0
 40
24.34999999999999
  0
LINE
  5
27A
330
1F
100
AcDbEntity
  8
1
  6
Continuous
 62
     7
370
     9
100
AcDbLine
 10
530.89439016854
 20
273.6170807789476
 30
0.0
 11
597.89439016854
 21
273.6170807789473
 31
0.0
  0
LINE
  5
27B
330
1F
100
AcDbEntity
  8
1
  6
Continuous
 62
     7
370
     9
100
AcDbLine
 10
621.3943901685402
 20
364.1170807789474
 30
0.0
 11
621.3943901685402
 21
297.1170807789474
 31
0.0
  0
LINE
  5
27C
330
1F
100
AcDbEntity
  8
1
  6
Continuous
 62
     7
370
     9
100
AcDbLine
 10
594.64439016854
 20
364.5670807789474
 30
0.0
 11
611.3443901685405
 21
364.5670807789474
 31
0.0
  0
LINE
  5
27D
330
1F
100
AcDbEntity
  8
1
  6
Continuous
 62
     7
370
     9
100
AcDbLine
 10
612.8943901685402
 20
295.1170807789474
 30
0.0
 11
619.3943901685402
 21
295.1170807789474
 31
0.0
  0
LINE
  5
27E
330
1F
100
AcDbEntity
  8
1
  6
Continuous
 62
     7
370
     9
100
AcDbLine
 10
599.89439016854
 20
282.1170807789473
 30
0.0
 11
599.89439016854
 21
275.6170807789473
 31
0.0
  0
LINE
  5
27F
330
1F
100
AcDbEntity
  8
1
  6
Continuous
 62
     7
370
     9
100
AcDbLine
 10
528.89439016854
 20
282.1170807789475
 30
0.0
 11
528.89439016854
 21
275.6170807789475
 31
0.0
  0
LINE
  5
280
330
1F
100
AcDbEntity
  8
1
  6
Continuous
 62
     7
370
     9
100
AcDbLine
 10
611.34439016854
 20
296.6670807789474
 30
0.0
 11
612.8943901685402
 21
295.1170807789473
 31
0.0
  0
LINE
  5
281
330
1F
100
AcDbEntity
  8
1
  6
Continuous
 62
     7
370
     9
100
AcDbLine
 10
606.3443900136829
 20
296.6670807789475
 30
0.0
 11
611.34439016854
 21
296.6670807789475
 31
0.0
  0
LINE
  5
282
330
1F
100
AcDbEntity
  8
1
  6
Continuous
 62
     7
370
     9
100
AcDbLine
 10
612.8943901685402
 20
366.1170807789474
 30
0.0
 11
619.3943901685402
 21
366.1170807789474
 31
0.0
  0
LINE
  5
283
330
1F
100
AcDbEntity
  8
1
  6
Continuous
 62
     7
370
     9
100
AcDbLine
 10
611.3443901685405
 20
364.5670807789473
 30
0.0
 11
612.8943901685404
 21
366.1170807789471
 31
0.0
  0
LINE
  5
284
330
1F
100
AcDbEntity
  8
1
  6
Continuous
 62
     7
370
     9
100
AcDbLine
 10
598.3443901685403
 20
283.6670807789471
 30
0.0
 11
599.89439016854
 21
282.1170807789472
 31
0.0
  0
LINE
  5
285
330
1F
100
AcDbEntity
  8
1
  6
Continuous
 62
     7
370
     9
100
AcDbLine
 10
530.4443901685402
 20
283.6670807789476
 30
0.0
 11
528.89439016854
 21
282.1170807789475
 31
0.0
  0
LINE
  5
286
330
1F
100
AcDbEntity
  8
1
  6
Continuous
 62
     7
370
     9
100
AcDbLine
 10
530.4443901685402
 20
300.3670807789476
 30
0.0
 11
530.4443901685402
 21
283.6670807789476
 31
0.0
  0
LINE
  5
287
330
1F
100
AcDbEntity
  8
1
  6
Continuous
 62
     7
370
     9
100
AcDbLine
 10
598.3443901685403
 20
288.6670807789474
 30
0.0
 11
598.3443901685403
 21
283.6670807789471
 31
0.0
  0
LINE
  5
288
330
1F
100
AcDbEntity
  8
1
  6
Continuous
 62
     7
370
     9
100
AcDbLine
 10
528.89439016854
 20
282.1170807789475
 30
0.0
 11
599.89439016854
 21
282.1170807789472
 31
0.0
  0
LINE
  5
289
330
1F
100
AcDbEntity
  8
1
  6
Continuous
 62
     7
370
     9
100
AcDbLine
 10
530.4443901685402
 20
283.6670807789474
 30
0.0
 11
598.3443901685403
 21
283.6670807789471
 31
0.0
  0
LINE
  5
28A
330
1F
100
AcDbEntity
  8
1
  6
Continuous
 62
     7
370
     9
100
AcDbLine
 10
612.89439016854
 20
366.1170807789474
 30
0.0
 11
612.89439016854
 21
295.1170807789474
 31
0.0
  0
LINE
  5
28B
330
1F
100
AcDbEntity
  8
1
  6
Continuous
 62
     7
370
     9
100
AcDbLine
 10
611.34439016854
 20
364.5670807789474
 30
0.0
 11
611.34439016854
 21
296.6670807789475
 31
0.0
  0
LINE
  5
28C
330
1F
100
AcDbEntity
  8
1
  6
Continuous
 62
     7
370
     9
100
AcDbLine
 10
574.9678353677059
 20
320.0436355797818
 30
0.0
 11
599.2733223566747
 21
295.738148590813
 31
0.0
  0
ARC
  5
28D
330
1F
100
AcDbEntity
  8
1
  6
Continuous
 62
     7
370
     9
100
AcDbCircle
 10
530.89439016854
 20
275.6170807789475
 30
0.0
 40
2.0
100
AcDbArc
 50
180.0000000000013
 51
269.9999999999998
  0
ARC
  5
28E
330
1F
100
AcDbEntity
  8
1
  6
Continuous
 62
     7
370
     9
100
AcDbCircle
 10
619.3943901685402
 20
297.1170807789474
 30
0.0
 40
2.0
100
AcDbArc
 50
269.9999999999998
 51
0.0
  0
ARC
  5
28F
330
1F
100
AcDbEntity
  8
1
  6
Continuous
 62
     7
370
     9
100
AcDbCircle
 10
619.3943901685402
 20
364.1170807789474
 30
0.0
 40
2.0
100
AcDbArc
 50
0.0
 51
89.99999999999991
  0
ARC
  5
290
330
1F
100
AcDbEntity
  8
1
  6
Continuous
 62
     7
370
     9
100
AcDbCircle
 10
597.89439016854
 20
275.6170807789473
 30
0.0
 40
2.0
100
AcDbArc
 50
269.9999999999998
 51
0.0
  0
ARC
  5
291
330
1F
100
AcDbEntity
  8
1
  6
Continuous
 62
     7
370
     9
100
AcDbCircle
 10
606.3443901685403
 20
288.6670807789475
 30
0.0
 40
8.0
100
AcDbArc
 50
89.99999999999991
 51
180.0
  0
ARC
  5
292
330
1F
100
AcDbEntity
  8
1
  6
Continuous
 62
     7
370
     9
100
AcDbCircle
 10
594.64439016854
 20
300.3670807789474
 30
0.0
 40
64.19999999999985
100
AcDbArc
 50
89.99999999999991
 51
179.9999999999998
  0
ARC
  5
293
330
1F
100
AcDbEntity
  8
1
  6
DASHDOT
 62
     7
370
     9
100
AcDbCircle
 10
594.6443901685402
 20
300.3670807789474
 30
0.0
 40
30.25
100
AcDbArc
 50
89.99999999999991
 51
180.0000000000001
  0
LINE
  5
294
330
1F
100
AcDbEntity
  8
1
  6
Continuous
 62
     7
370
     9
100
AcDbLine
 10
641.3943901685402
 20
282.1170807789472
 30
0.0
 11
676.8943901685402
 21
282.1170807789472
 31
0.0
  0
LINE
  5
295
330
1F
100
AcDbEntity
  8
1
  6
Continuous
 62
     7
370
     9
100
AcDbLine
 10
643.3943901685402
 20
273.6170807789473
 30
0.0
 11
710.3943901685402
 21
273.6170807789473
 31
0.0
  0
LINE
  5
296
330
1F
100
AcDbEntity
  8
1
  6
Continuous
 62
     7
370
     9
100
AcDbLine
 10
710.8443901685403
 20
283.6670807789473
 30
0.0
 11
712.39439016854
 21
282.1170807789473
 31
0.0
  0
LINE
  5
297
330
1F
100
AcDbEntity
  8
1
  6
Continuous
 62
     7
370
     9
100
AcDbLine
 10
641.3943901685402
 20
282.1170807789473
 30
0.0
 11
642.9443901685402
 21
283.6670807789473
 31
0.0
  0
LINE
  5
298
330
1F
100
AcDbEntity
  8
1
  6
Continuous
 62
     7
370
     9
100
AcDbLine
 10
641.3943901685402
 20
282.1170807789473
 30
0.0
 11
641.3943901685402
 21
275.6170807789473
 31
0.0
  0
LINE
  5
299
330
1F
100
AcDbEntity
  8
1
  6
Continuous
 62
     7
370
     9
100
AcDbLine
 10
712.3943901685402
 20
282.1170807789473
 30
0.0
 11
712.3943901685402
 21
275.6170807789473
 31
0.0
  0
LINE
  5
29A
330
1F
100
AcDbEntity
  8
1
  6
Continuous
 62
     7
370
     9
100
AcDbLine
 10
642.9443901685402
 20
320.2417494589365
 30
0.0
 11
642.9443901685402
 21
283.6670807789473
 31
0.0
  0
LINE
  5
29B
330
1F
100
AcDbEntity
  8
1
  6
Continuous
 62
     7
370
     9
100
AcDbLine
 10
710.8443901685403
 20
320.2417494589364
 30
0.0
 11
710.8443901685403
 21
283.6670807789473
 31
0.0
  0
LINE
  5
29C
330
1F
100
AcDbEntity
  8
1
  6
Continuous
 62
     7
370
     9
100
AcDbLine
 10
642.9443901685402
 20
283.6670807789473
 30
0.0
 11
676.8943901685402
 21
283.6670807789473
 31
0.0
  0
LINE
  5
29D
330
1F
100
AcDbEntity
  8
1
  6
Continuous
 62
     7
370
     9
100
AcDbLine
 10
676.8943901685402
 20
282.1170807789472
 30
0.0
 11
712.39439016854
 21
282.1170807789472
 31
0.0
  0
LINE
  5
29E
330
1F
100
AcDbEntity
  8
1
  6
Continuous
 62
     7
370
     9
100
AcDbLine
 10
676.8943901685402
 20
283.6670807789473
 30
0.0
 11
710.8443901685403
 21
283.6670807789473
 31
0.0
  0
CIRCLE
  5
29F
330
1F
100
AcDbEntity
  8
1
  6
Continuous
 62
     7
370
     9
100
AcDbCircle
 10
676.8943901685402
 20
330.6170807789474
 30
0.0
 40
35.5
  0
ARC
  5
2A0
330
1F
100
AcDbEntity
  8
1
  6
Continuous
 62
     7
370
     9
100
AcDbCircle
 10
643.3943901685402
 20
275.6170807789473
 30
0.0
 40
2.0
100
AcDbArc
 50
179.9999999999998
 51
269.9999999999998
  0
ARC
  5
2A1
330
1F
100
AcDbEntity
  8
1
  6
Continuous
 62
     7
370
     9
100
AcDbCircle
 10
710.39439016854
 20
275.6170807789473
 30
0.0
 40
2.0
100
AcDbArc
 50
269.9999999999998
 51
0.0
  0
CIRCLE
  5
2A2
330
1F
100
AcDbEntity
  8
1
  6
Continuous
 62
     7
370
     9
100
AcDbCircle
 10
676.8943901685402
 20
330.6170807789474
 30
0.0
 40
28.26599680162483
  0
CIRCLE
  5
2A3
330
1F
100
AcDbEntity
  8
1
  6
Continuous
 62
     7
370
     9
100
AcDbCircle
 10
676.8943901685402
 20
330.6170807789474
 30
0.0
 40
27.6825595374799
  0
CIRCLE
  5
2A4
330
1F
100
AcDbEntity
  8
1
  6
Continuous
 62
     7
370
     9
100
AcDbCircle
 10
676.8943901685402
 20
330.6170807789474
 30
0.0
 40
30.24999999999999
  0
LINE
  5
2A5
330
1F
100
AcDbEntity
  8
1
  6
Continuous
 62
     7
370
     9
100
AcDbLine
 10
692.7734497500788
 20
751.569206842924
 30
0.0
 11
692.7734497500788
 21
625.569206842924
 31
0.0
  0
LINE
  5
2A6
330
1F
100
AcDbEntity
  8
1
  6
Continuous
 62
     7
370
     9
100
AcDbLine
 10
678.2734497500788
 20
625.5692068429241
 30
0.0
 11
680.2734497500788
 21
623.5692068429241
 31
0.0
  0
LINE
  5
2A7
330
1F
100
AcDbEntity
  8
1
  6
Continuous
 62
     7
370
     9
100
AcDbLine
 10
678.2734497500788
 20
751.569206842924
 30
0.0
 11
680.2734497500788
 21
753.5692068429239
 31
0.0
  0
LINE
  5
2A8
330
1F
100
AcDbEntity
  8
1
  6
Continuous
 62
     7
370
     9
100
AcDbLine
 10
659.7734497500784
 20
615.569206842924
 30
0.0
 11
659.7734497500784
 21
607.0692068429238
 31
0.0
  0
LINE
  5
2A9
330
1F
100
AcDbEntity
  8
1
  6
Continuous
 62
     7
370
     9
100
AcDbLine
 10
654.7734497500788
 20
751.569206842924
 30
0.0
 11
678.2734497500788
 21
751.569206842924
 31
0.0
  0
LINE
  5
2AA
330
1F
100
AcDbEntity
  8
1
  6
Continuous
 62
     7
370
     9
100
AcDbLine
 10
659.7734497500784
 20
607.0692068429238
 30
0.0
 11
661.7734497500784
 21
605.0692068429238
 31
0.0
  0
LINE
  5
2AB
330
1F
100
AcDbEntity
  8
1
  6
Continuous
 62
     7
370
     9
100
AcDbLine
 10
680.2734497500788
 20
753.569206842924
 30
0.0
 11
690.7734497500788
 21
753.569206842924
 31
0.0
  0
LINE
  5
2AC
330
1F
100
AcDbEntity
  8
1
  6
Continuous
 62
     7
370
     9
100
AcDbLine
 10
531.7734497500785
 20
605.0692068429242
 30
0.0
 11
531.7734497500784
 21
594.5692068429242
 31
0.0
  0
LINE
  5
2AD
330
1F
100
AcDbEntity
  8
1
  6
Continuous
 62
     7
370
     9
100
AcDbLine
 10
533.7734497500785
 20
607.0692068429242
 30
0.0
 11
531.7734497500784
 21
605.0692068429241
 31
0.0
  0
LINE
  5
2AE
330
1F
100
AcDbEntity
  8
1
  6
Continuous
 62
     7
370
     9
100
AcDbLine
 10
661.7734497500784
 20
605.0692068429238
 30
0.0
 11
661.7734497500784
 21
594.5692068429238
 31
0.0
  0
LINE
  5
2AF
330
1F
100
AcDbEntity
  8
1
  6
Continuous
 62
     7
370
     9
100
AcDbLine
 10
533.7734497500784
 20
592.5692068429242
 30
0.0
 11
659.7734497500784
 21
592.5692068429238
 31
0.0
  0
LINE
  5
2B0
330
1F
100
AcDbEntity
  8
1
  6
Continuous
 62
     7
370
     9
100
AcDbLine
 10
680.2734497500788
 20
623.569206842924
 30
0.0
 11
690.7734497500788
 21
623.569206842924
 31
0.0
  0
LINE
  5
2B1
330
1F
100
AcDbEntity
  8
1
  6
Continuous
 62
     7
370
     9
100
AcDbLine
 10
533.7734497500786
 20
630.5692068429245
 30
0.0
 11
533.7734497500785
 21
607.0692068429242
 31
0.0
  0
LINE
  5
2B2
330
1F
100
AcDbEntity
  8
1
  6
Continuous
 62
     7
370
     9
100
AcDbLine
 10
669.7734497500784
 20
625.569206842924
 30
0.0
 11
678.2734497500788
 21
625.569206842924
 31
0.0
  0
LINE
  5
2B3
330
1F
100
AcDbEntity
  8
1
  6
Continuous
 62
     7
370
     9
100
AcDbLine
 10
531.7734497500785
 20
605.0692068429242
 30
0.0
 11
661.7734497500784
 21
605.0692068429238
 31
0.0
  0
LINE
  5
2B4
330
1F
100
AcDbEntity
  8
1
  6
Continuous
 62
     7
370
     9
100
AcDbLine
 10
678.2734497500788
 20
751.569206842924
 30
0.0
 11
678.2734497500788
 21
625.569206842924
 31
0.0
  0
LINE
  5
2B5
330
1F
100
AcDbEntity
  8
1
  6
Continuous
 62
     7
370
     9
100
AcDbLine
 10
680.2734497500788
 20
753.569206842924
 30
0.0
 11
680.2734497500788
 21
623.569206842924
 31
0.0
  0
LINE
  5
2B6
330
1F
100
AcDbEntity
  8
1
  6
Continuous
 62
     7
370
     9
100
AcDbLine
 10
533.7734497500785
 20
607.0692068429242
 30
0.0
 11
659.7734497500784
 21
607.0692068429238
 31
0.0
  0
LINE
  5
2B7
330
1F
100
AcDbEntity
  8
1
  6
Continuous
 62
     7
370
     9
100
AcDbLine
 10
615.9579555823599
 20
669.384701010643
 30
0.0
 11
660.5810615946533
 21
624.7615949983491
 31
0.0
  0
ARC
  5
2B8
330
1F
100
AcDbEntity
  8
1
  6
Continuous
 62
     7
370
     9
100
AcDbCircle
 10
654.7734497500788
 20
630.569206842924
 30
0.0
 40
121.0
100
AcDbArc
 50
90.00000000000011
 51
179.9999999999998
  0
ARC
  5
2B9
330
1F
100
AcDbEntity
  8
1
  6
Continuous
 62
     7
370
     9
100
AcDbCircle
 10
533.7734497500784
 20
594.5692068429242
 30
0.0
 40
2.0
100
AcDbArc
 50
180.0000000000029
 51
269.9999999999998
  0
ARC
  5
2BA
330
1F
100
AcDbEntity
  8
1
  6
Continuous
 62
     7
370
     9
100
AcDbCircle
 10
690.7734497500788
 20
625.569206842924
 30
0.0
 40
2.0
100
AcDbArc
 50
269.9999999999998
 51
0.0
  0
ARC
  5
2BB
330
1F
100
AcDbEntity
  8
1
  6
Continuous
 62
     7
370
     9
100
AcDbCircle
 10
690.7734497500788
 20
751.569206842924
 30
0.0
 40
2.0
100
AcDbArc
 50
0.0
 51
89.99999999999991
  0
ARC
  5
2BC
330
1F
100
AcDbEntity
  8
1
  6
Continuous
 62
     7
370
     9
100
AcDbCircle
 10
659.7734497500784
 20
594.5692068429238
 30
0.0
 40
2.0
100
AcDbArc
 50
269.9999999999998
 51
0.0
  0
ARC
  5
2BD
330
1F
100
AcDbEntity
  8
1
  6
Continuous
 62
     7
370
     9
100
AcDbCircle
 10
669.7734497500784
 20
615.569206842924
 30
0.0
 40
10.0
100
AcDbArc
 50
89.99999999999991
 51
179.9999999999998
  0
ARC
  5
2BE
330
1F
100
AcDbEntity
  8
1
  6
DASHDOT
 62
     7
370
     9
100
AcDbCircle
 10
654.7734497500788
 20
630.569206842924
 30
0.0
 40
58.0
100
AcDbArc
 50
90.00000000000021
 51
179.9999999999998
  0
LINE
  5
2BF
330
1F
100
AcDbEntity
  8
1
  6
Continuous
 62
     7
370
     9
100
AcDbLine
 10
813.9943901685403
 20
303.9670807789473
 30
0.0
 11
813.9943901685403
 21
284.7170807789473
 31
0.0
  0
LINE
  5
2C0
330
1F
100
AcDbEntity
  8
1
  6
Continuous
 62
     7
370
     9
100
AcDbLine
 10
899.2943901685403
 20
293.4670807789473
 30
0.0
 11
899.2943901685403
 21
284.7170807789472
 31
0.0
  0
LINE
  5
2C1
330
1F
100
AcDbEntity
  8
1
  6
Continuous
 62
     7
370
     9
100
AcDbLine
 10
813.9943901685403
 20
284.7170807789472
 30
0.0
 11
812.3943901685403
 21
283.1170807789473
 31
0.0
  0
LINE
  5
2C2
330
1F
100
AcDbEntity
  8
1
  6
Continuous
 62
     7
370
     9
100
AcDbLine
 10
899.2943901685403
 20
284.7170807789473
 30
0.0
 11
900.8943901685402
 21
283.1170807789473
 31
0.0
  0
LINE
  5
2C3
330
1F
100
AcDbEntity
  8
1
  6
Continuous
 62
     7
370
     9
100
AcDbLine
 10
812.3943901685402
 20
283.1170807789473
 30
0.0
 11
812.3943901685402
 21
275.6170807789473
 31
0.0
  0
LINE
  5
2C4
330
1F
100
AcDbEntity
  8
1
  6
Continuous
 62
     7
370
     9
100
AcDbLine
 10
916.1443901685403
 20
298.3670807789474
 30
0.0
 11
923.6443901685403
 21
298.3670807789474
 31
0.0
  0
LINE
  5
2C5
330
1F
100
AcDbEntity
  8
1
  6
Continuous
 62
     7
370
     9
100
AcDbLine
 10
914.5443901685403
 20
385.2670807789474
 30
0.0
 11
916.1443901685403
 21
386.8670807789473
 31
0.0
  0
LINE
  5
2C6
330
1F
100
AcDbEntity
  8
1
  6
Continuous
 62
     7
370
     9
100
AcDbLine
 10
814.3943901685402
 20
273.6170807789473
 30
0.0
 11
898.8943901685403
 21
273.6170807789473
 31
0.0
  0
LINE
  5
2C7
330
1F
100
AcDbEntity
  8
1
  6
Continuous
 62
     7
370
     9
100
AcDbLine
 10
900.8943901685402
 20
283.1170807789473
 30
0.0
 11
900.8943901685402
 21
275.6170807789473
 31
0.0
  0
LINE
  5
2C8
330
1F
100
AcDbEntity
  8
1
  6
Continuous
 62
     7
370
     9
100
AcDbLine
 10
914.5443901685403
 20
299.9670807789473
 30
0.0
 11
916.1443901685403
 21
298.3670807789474
 31
0.0
  0
LINE
  5
2C9
330
1F
100
AcDbEntity
  8
1
  6
Continuous
 62
     7
370
     9
100
AcDbLine
 10
914.5443901685403
 20
385.2670807789474
 30
0.0
 11
914.5443901685403
 21
299.9670807789473
 31
0.0
  0
LINE
  5
2CA
330
1F
100
AcDbEntity
  8
1
  6
Continuous
 62
     7
370
     9
100
AcDbLine
 10
925.6443901685403
 20
384.7670807789474
 30
0.0
 11
925.6443901685403
 21
300.3670807789474
 31
0.0
  0
LINE
  5
2CB
330
1F
100
AcDbEntity
  8
1
  6
Continuous
 62
     7
370
     9
100
AcDbLine
 10
905.7943901685403
 20
299.9670807789473
 30
0.0
 11
914.5443901685403
 21
299.9670807789473
 31
0.0
  0
LINE
  5
2CC
330
1F
100
AcDbEntity
  8
1
  6
Continuous
 62
     7
370
     9
100
AcDbLine
 10
916.1443901685403
 20
386.8670807789474
 30
0.0
 11
916.1443901685403
 21
298.3670807789474
 31
0.0
  0
LINE
  5
2CD
330
1F
100
AcDbEntity
  8
1
  6
Continuous
 62
     7
370
     9
100
AcDbLine
 10
813.9943901685403
 20
284.7170807789473
 30
0.0
 11
899.2943901685403
 21
284.7170807789472
 31
0.0
  0
LINE
  5
2CE
330
1F
100
AcDbEntity
  8
1
  6
Continuous
 62
     7
370
     9
100
AcDbLine
 10
895.2943901685403
 20
385.2670807789474
 30
0.0
 11
914.5443901685403
 21
385.2670807789474
 31
0.0
  0
LINE
  5
2CF
330
1F
100
AcDbEntity
  8
1
  6
Continuous
 62
     7
370
     9
100
AcDbLine
 10
916.1443901685403
 20
386.8670807789474
 30
0.0
 11
923.6443901685403
 21
386.8670807789474
 31
0.0
  0
LINE
  5
2D0
330
1F
100
AcDbEntity
  8
1
  6
Continuous
 62
     7
370
     9
100
AcDbLine
 10
812.3943901685402
 20
283.1170807789473
 30
0.0
 11
900.8943901685402
 21
283.1170807789473
 31
0.0
  0
LINE
  5
2D1
330
1F
100
AcDbEntity
  8
1
  6
Continuous
 62
     7
370
     9
100
AcDbLine
 10
869.502402474451
 20
329.7590684730368
 30
0.0
 11
899.7839825284548
 21
299.4774884190331
 31
0.0
  0
ARC
  5
2D2
330
1F
100
AcDbEntity
  8
1
  6
Continuous
 62
     7
370
     9
100
AcDbCircle
 10
905.7943901685403
 20
293.4670807789473
 30
0.0
 40
6.5
100
AcDbArc
 50
89.99999999999991
 51
179.9999999999998
  0
ARC
  5
2D3
330
1F
100
AcDbEntity
  8
1
  6
Continuous
 62
     7
370
     9
100
AcDbCircle
 10
814.3943901685402
 20
275.6170807789473
 30
0.0
 40
2.0
100
AcDbArc
 50
179.9999999999998
 51
269.9999999999998
  0
ARC
  5
2D4
330
1F
100
AcDbEntity
  8
1
  6
Continuous
 62
     7
370
     9
100
AcDbCircle
 10
898.8943901685402
 20
275.6170807789473
 30
0.0
 40
2.0
100
AcDbArc
 50
269.9999999999998
 51
0.0
  0
ARC
  5
2D5
330
1F
100
AcDbEntity
  8
1
  6
Continuous
 62
     7
370
     9
100
AcDbCircle
 10
895.2943901685403
 20
303.9670807789473
 30
0.0
 40
81.3
100
AcDbArc
 50
90.00000000000016
 51
179.9999999999998
  0
ARC
  5
2D6
330
1F
100
AcDbEntity
  8
1
  6
Continuous
 62
     7
370
     9
100
AcDbCircle
 10
923.6443901685403
 20
384.8670807789474
 30
0.0
 40
2.0
100
AcDbArc
 50
0.0
 51
89.99999999999991
  0
ARC
  5
2D7
330
1F
100
AcDbEntity
  8
1
  6
Continuous
 62
     7
370
     9
100
AcDbCircle
 10
923.6443901685403
 20
300.3670807789474
 30
0.0
 40
2.0
100
AcDbArc
 50
269.9999999999998
 51
0.0
  0
ARC
  5
2D8
330
1F
100
AcDbEntity
  8
1
  6
DASHDOT
 62
     7
370
     9
100
AcDbCircle
 10
895.2943901685403
 20
303.9670807789473
 30
0.0
 40
38.65000000000001
100
AcDbArc
 50
89.99999999999991
 51
179.9999999999998
  0
LINE
  5
2D9
330
1F
100
AcDbEntity
  8
1
  6
Continuous
 62
     7
370
     9
100
AcDbLine
 10
947.2443901685402
 20
330.8255584005603
 30
0.0
 11
947.2443901685402
 21
284.7170807789473
 31
0.0
  0
LINE
  5
2DA
330
1F
100
AcDbEntity
  8
1
  6
Continuous
 62
     7
370
     9
100
AcDbLine
 10
947.6443901685403
 20
273.6170807789473
 30
0.0
 11
1032.14439016854
 21
273.6170807789473
 31
0.0
  0
LINE
  5
2DB
330
1F
100
AcDbEntity
  8
1
  6
Continuous
 62
     7
370
     9
100
AcDbLine
 10
1032.54439016854
 20
330.8255584005603
 30
0.0
 11
1032.54439016854
 21
284.7170807789473
 31
0.0
  0
LINE
  5
2DC
330
1F
100
AcDbEntity
  8
1
  6
Continuous
 62
     7
370
     9
100
AcDbLine
 10
945.6443901685403
 20
283.1170807789473
 30
0.0
 11
945.6443901685403
 21
275.6170807789473
 31
0.0
  0
LINE
  5
2DD
330
1F
100
AcDbEntity
  8
1
  6
Continuous
 62
     7
370
     9
100
AcDbLine
 10
1034.14439016854
 20
283.1170807789473
 30
0.0
 11
1034.14439016854
 21
275.6170807789473
 31
0.0
  0
LINE
  5
2DE
330
1F
100
AcDbEntity
  8
1
  6
Continuous
 62
     7
370
     9
100
AcDbLine
 10
945.6443901685403
 20
283.1170807789473
 30
0.0
 11
947.2443901685402
 21
284.7170807789473
 31
0.0
  0
LINE
  5
2DF
330
1F
100
AcDbEntity
  8
1
  6
Continuous
 62
     7
370
     9
100
AcDbLine
 10
1032.54439016854
 20
284.7170807789473
 30
0.0
 11
1034.14439016854
 21
283.1170807789473
 31
0.0
  0
LINE
  5
2E0
330
1F
100
AcDbEntity
  8
1
  6
Continuous
 62
     7
370
     9
100
AcDbLine
 10
945.6443901685403
 20
283.1170807789473
 30
0.0
 11
1034.14439016854
 21
283.1170807789473
 31
0.0
  0
LINE
  5
2E1
330
1F
100
AcDbEntity
  8
1
  6
Continuous
 62
     7
370
     9
100
AcDbLine
 10
947.2443901685402
 20
284.7170807789473
 30
0.0
 11
1032.54439016854
 21
284.7170807789473
 31
0.0
  0
CIRCLE
  5
2E2
330
1F
100
AcDbEntity
  8
1
  6
Continuous
 62
     7
370
     9
100
AcDbCircle
 10
989.8943901685401
 20
342.6170807789474
 30
0.0
 40
35.56737499999999
  0
CIRCLE
  5
2E3
330
1F
100
AcDbEntity
  8
1
  6
Continuous
 62
     7
370
     9
100
AcDbCircle
 10
989.8943901685401
 20
342.6170807789474
 30
0.0
 40
37.04637499999998
  0
CIRCLE
  5
2E4
330
1F
100
AcDbEntity
  8
1
  6
Continuous
 62
     7
370
     9
100
AcDbCircle
 10
989.8943901685401
 20
342.6170807789474
 30
0.0
 40
38.05000000000001
  0
CIRCLE
  5
2E5
330
1F
100
AcDbEntity
  8
1
  6
Continuous
 62
     7
370
     9
100
AcDbCircle
 10
989.8943901685401
 20
342.6170807789474
 30
0.0
 40
44.25
  0
ARC
  5
2E6
330
1F
100
AcDbEntity
  8
1
  6
Continuous
 62
     7
370
     9
100
AcDbCircle
 10
947.6443901685403
 20
275.6170807789473
 30
0.0
 40
2.0
100
AcDbArc
 50
179.9999999999998
 51
269.9999999999998
  0
ARC
  5
2E7
330
1F
100
AcDbEntity
  8
1
  6
Continuous
 62
     7
370
     9
100
AcDbCircle
 10
1032.14439016854
 20
275.6170807789473
 30
0.0
 40
2.0
100
AcDbArc
 50
269.9999999999998
 51
0.0
  0
LINE
  5
2E8
330
1F
100
AcDbEntity
  8
1
  6
Continuous
 62
     7
370
     9
100
AcDbLine
 10
1032.54439016854
 20
475.8670807789476
 30
0.0
 11
1032.54439016854
 21
417.9670807789475
 31
0.0
  0
LINE
  5
2E9
330
1F
100
AcDbEntity
  8
1
  6
Continuous
 62
     7
370
     9
100
AcDbLine
 10
947.6443901685403
 20
406.8670807789474
 30
0.0
 11
1032.14439016854
 21
406.8670807789474
 31
0.0
  0
LINE
  5
2EA
330
1F
100
AcDbEntity
  8
1
  6
Continuous
 62
     7
370
     9
100
AcDbLine
 10
947.2443901685402
 20
417.9670807789475
 30
0.0
 11
1032.54439016854
 21
417.9670807789475
 31
0.0
  0
LINE
  5
2EB
330
1F
100
AcDbEntity
  8
1
  6
Continuous
 62
     7
370
     9
100
AcDbLine
 10
947.2443901685402
 20
475.8670807789476
 30
0.0
 11
947.2443901685402
 21
417.9670807789475
 31
0.0
  0
LINE
  5
2EC
330
1F
100
AcDbEntity
  8
1
  6
Continuous
 62
     7
370
     9
100
AcDbLine
 10
945.6443901685403
 20
416.3670807789476
 30
0.0
 11
947.2443901685402
 21
417.9670807789475
 31
0.0
  0
LINE
  5
2ED
330
1F
100
AcDbEntity
  8
1
  6
Continuous
 62
     7
370
     9
100
AcDbLine
 10
945.6443901685403
 20
416.3670807789474
 30
0.0
 11
1034.14439016854
 21
416.3670807789474
 31
0.0
  0
LINE
  5
2EE
330
1F
100
AcDbEntity
  8
1
  6
Continuous
 62
     7
370
     9
100
AcDbLine
 10
945.6443901685403
 20
416.3670807789474
 30
0.0
 11
945.6443901685403
 21
408.8670807789474
 31
0.0
  0
LINE
  5
2EF
330
1F
100
AcDbEntity
  8
1
  6
Continuous
 62
     7
370
     9
100
AcDbLine
 10
1034.14439016854
 20
416.3670807789474
 30
0.0
 11
1034.14439016854
 21
408.8670807789474
 31
0.0
  0
LINE
  5
2F0
330
1F
100
AcDbEntity
  8
1
  6
Continuous
 62
     7
370
     9
100
AcDbLine
 10
1032.54439016854
 20
417.9670807789475
 30
0.0
 11
1034.14439016854
 21
416.3670807789476
 31
0.0
  0
ARC
  5
2F1
330
1F
100
AcDbEntity
  8
1
  6
Continuous
 62
     7
370
     9
100
AcDbCircle
 10
1032.14439016854
 20
408.8670807789474
 30
0.0
 40
2.0
100
AcDbArc
 50
269.9999999999998
 51
0.0
  0
ARC
  5
2F2
330
1F
100
AcDbEntity
  8
1
  6
Continuous
 62
     7
370
     9
100
AcDbCircle
 10
947.6443901685403
 20
408.8670807789474
 30
0.0
 40
2.0
100
AcDbArc
 50
179.9999999999998
 51
269.9999999999998
  0
ARC
  5
2F3
330
1F
100
AcDbEntity
  8
1
  6
Continuous
 62
     7
370
     9
100
AcDbCircle
 10
989.8943901685401
 20
475.8670807789476
 30
0.0
 40
44.25
100
AcDbArc
 50
344.5453791506669
 51
195.4546208493337
  0
ARC
  5
2F4
330
1F
100
AcDbEntity
  8
1
  6
Continuous
 62
     7
370
     9
100
AcDbCircle
 10
989.8943901685401
 20
475.8670807789476
 30
0.0
 40
42.64999999999998
100
AcDbArc
 50
0.0
 51
179.9999999999999
  0
LINE
  5
2F5
330
1F
100
AcDbEntity
  8
1
  6
Continuous
 62
     7
370
     9
100
AcDbLine
 10
676.8943901685402
 20
396.1670807789475
 30
0.0
 11
710.8443901685403
 21
396.1670807789475
 31
0.0
  0
LINE
  5
2F6
330
1F
100
AcDbEntity
  8
1
  6
Continuous
 62
     7
370
     9
100
AcDbLine
 10
676.8943901685402
 20
394.6170807789474
 30
0.0
 11
712.39439016854
 21
394.6170807789474
 31
0.0
  0
LINE
  5
2F7
330
1F
100
AcDbEntity
  8
1
  6
Continuous
 62
     7
370
     9
100
AcDbLine
 10
642.9443901685402
 20
396.1670807789475
 30
0.0
 11
676.8943901685402
 21
396.1670807789475
 31
0.0
  0
LINE
  5
2F8
330
1F
100
AcDbEntity
  8
1
  6
Continuous
 62
     7
370
     9
100
AcDbLine
 10
710.8443901685403
 20
443.1170790596868
 30
0.0
 11
710.8443901685403
 21
396.1670807789474
 31
0.0
  0
LINE
  5
2F9
330
1F
100
AcDbEntity
  8
1
  6
Continuous
 62
     7
370
     9
100
AcDbLine
 10
642.9443901685402
 20
443.1170807789476
 30
0.0
 11
642.9443901685402
 21
396.1670807789475
 31
0.0
  0
LINE
  5
2FA
330
1F
100
AcDbEntity
  8
1
  6
Continuous
 62
     7
370
     9
100
AcDbLine
 10
712.3943901685402
 20
394.6170807789475
 30
0.0
 11
712.3943901685402
 21
388.1170807789475
 31
0.0
  0
LINE
  5
2FB
330
1F
100
AcDbEntity
  8
1
  6
Continuous
 62
     7
370
     9
100
AcDbLine
 10
641.3943901685402
 20
394.6170807789475
 30
0.0
 11
641.3943901685402
 21
388.1170807789475
 31
0.0
  0
LINE
  5
2FC
330
1F
100
AcDbEntity
  8
1
  6
Continuous
 62
     7
370
     9
100
AcDbLine
 10
641.3943901685402
 20
394.6170807789475
 30
0.0
 11
642.9443901685402
 21
396.1670807789475
 31
0.0
  0
LINE
  5
2FD
330
1F
100
AcDbEntity
  8
1
  6
Continuous
 62
     7
370
     9
100
AcDbLine
 10
710.8443901685403
 20
396.1670807789474
 30
0.0
 11
712.39439016854
 21
394.6170807789475
 31
0.0
  0
LINE
  5
2FE
330
1F
100
AcDbEntity
  8
1
  6
Continuous
 62
     7
370
     9
100
AcDbLine
 10
643.3943901685402
 20
386.1170807789475
 30
0.0
 11
710.3943901685402
 21
386.1170807789475
 31
0.0
  0
LINE
  5
2FF
330
1F
100
AcDbEntity
  8
1
  6
Continuous
 62
     7
370
     9
100
AcDbLine
 10
641.3943901685402
 20
394.6170807789474
 30
0.0
 11
676.8943901685402
 21
394.6170807789474
 31
0.0
  0
ARC
  5
300
330
1F
100
AcDbEntity
  8
1
  6
Continuous
 62
     7
370
     9
100
AcDbCircle
 10
710.39439016854
 20
388.1170807789474
 30
0.0
 40
2.0
100
AcDbArc
 50
269.9999999999998
 51
0.0
  0
ARC
  5
301
330
1F
100
AcDbEntity
  8
1
  6
Continuous
 62
     7
370
     9
100
AcDbCircle
 10
643.3943901685402
 20
388.1170807789474
 30
0.0
 40
2.0
100
AcDbArc
 50
179.9999999999984
 51
269.9999999999998
  0
ARC
  5
302
330
1F
100
AcDbEntity
  8
1
  6
Continuous
 62
     7
370
     9
100
AcDbCircle
 10
676.8943901685402
 20
443.1170807789476
 30
0.0
 40
35.5
100
AcDbArc
 50
343.006521533655
 51
196.9934784663452
  0
ARC
  5
303
330
1F
100
AcDbEntity
  8
1
  6
Continuous
 62
     7
370
     9
100
AcDbCircle
 10
676.8943901685402
 20
443.1170807789476
 30
0.0
 40
33.94999999999999
100
AcDbArc
 50
359.9999970984866
 51
180.0
  0
LINE
  5
304
330
1F
100
AcDbEntity
  8
1
  6
Continuous
 62
     7
370
     9
100
AcDbLine
 10
371.89439016854
 20
418.8670807789473
 30
0.0
 11
371.89439016854
 21
379.8670807789473
 31
0.0
  0
LINE
  5
305
330
1F
100
AcDbEntity
  8
1
  6
Continuous
 62
     7
370
     9
100
AcDbLine
 10
427.39439016854
 20
418.8670807789473
 30
0.0
 11
427.39439016854
 21
379.8670807789473
 31
0.0
  0
LINE
  5
306
330
1F
100
AcDbEntity
  8
1
  6
Continuous
 62
     7
370
     9
100
AcDbLine
 10
370.39439016854
 20
378.3670807789473
 30
0.0
 11
370.39439016854
 21
372.8670807789473
 31
0.0
  0
LINE
  5
307
330
1F
100
AcDbEntity
  8
1
  6
Continuous
 62
     7
370
     9
100
AcDbLine
 10
371.89439016854
 20
379.8670807789473
 30
0.0
 11
427.39439016854
 21
379.8670807789473
 31
0.0
  0
LINE
  5
308
330
1F
100
AcDbEntity
  8
1
  6
Continuous
 62
     7
370
     9
100
AcDbLine
 10
428.89439016854
 20
378.3670807789473
 30
0.0
 11
428.89439016854
 21
372.8670807789473
 31
0.0
  0
LINE
  5
309
330
1F
100
AcDbEntity
  8
1
  6
Continuous
 62
     7
370
     9
100
AcDbLine
 10
372.39439016854
 20
370.8670807789473
 30
0.0
 11
426.89439016854
 21
370.8670807789473
 31
0.0
  0
LINE
  5
30A
330
1F
100
AcDbEntity
  8
1
  6
Continuous
 62
     7
370
     9
100
AcDbLine
 10
427.39439016854
 20
379.8670807789473
 30
0.0
 11
428.89439016854
 21
378.3670807789473
 31
0.0
  0
LINE
  5
30B
330
1F
100
AcDbEntity
  8
1
  6
Continuous
 62
     7
370
     9
100
AcDbLine
 10
370.39439016854
 20
378.3670807789473
 30
0.0
 11
371.89439016854
 21
379.8670807789473
 31
0.0
  0
LINE
  5
30C
330
1F
100
AcDbEntity
  8
1
  6
Continuous
 62
     7
370
     9
100
AcDbLine
 10
370.39439016854
 20
378.3670807789473
 30
0.0
 11
428.89439016854
 21
378.3670807789473
 31
0.0
  0
ARC
  5
30D
330
1F
100
AcDbEntity
  8
1
  6
Continuous
 62
     7
370
     9
100
AcDbCircle
 10
372.39439016854
 20
372.8670807789473
 30
0.0
 40
2.0
100
AcDbArc
 50
179.9999999999998
 51
269.9999999999998
  0
ARC
  5
30E
330
1F
100
AcDbEntity
  8
1
  6
Continuous
 62
     7
370
     9
100
AcDbCircle
 10
426.89439016854
 20
372.8670807789473
 30
0.0
 40
2.0
100
AcDbArc
 50
269.9999999999998
 51
0.0
  0
ARC
  5
30F
330
1F
100
AcDbEntity
  8
1
  6
Continuous
 62
     7
370
     9
100
AcDbCircle
 10
399.64439016854
 20
418.8670807789473
 30
0.0
 40
29.25
100
AcDbArc
 50
341.5713303961763
 51
198.4286696038244
  0
ARC
  5
310
330
1F
100
AcDbEntity
  8
1
  6
Continuous
 62
     7
370
     9
100
AcDbCircle
 10
399.64439016854
 20
418.8670807789473
 30
0.0
 40
27.75
100
AcDbArc
 50
0.0
 51
180.0000000000001
  0
LINE
  5
311
330
1F
100
AcDbEntity
  8
1
  6
Continuous
 62
     7
370
     9
100
AcDbLine
 10
172.14439016854
 20
411.1170807789473
 30
0.0
 11
172.14439016854
 21
373.1170807789473
 31
0.0
  0
LINE
  5
312
330
1F
100
AcDbEntity
  8
1
  6
Continuous
 62
     7
370
     9
100
AcDbLine
 10
123.14439016854
 20
411.1170807789473
 30
0.0
 11
123.14439016854
 21
373.1170807789473
 31
0.0
  0
LINE
  5
313
330
1F
100
AcDbEntity
  8
1
  6
Continuous
 62
     7
370
     9
100
AcDbLine
 10
122.14439016854
 20
372.1170807789473
 30
0.0
 11
173.14439016854
 21
372.1170807789473
 31
0.0
  0
LINE
  5
314
330
1F
100
AcDbEntity
  8
1
  6
Continuous
 62
     7
370
     9
100
AcDbLine
 10
123.14439016854
 20
373.1170807789473
 30
0.0
 11
172.14439016854
 21
373.1170807789473
 31
0.0
  0
LINE
  5
315
330
1F
100
AcDbEntity
  8
1
  6
Continuous
 62
     7
370
     9
100
AcDbLine
 10
122.14439016854
 20
372.1170807789473
 30
0.0
 11
122.14439016854
 21
367.1170807789473
 31
0.0
  0
LINE
  5
316
330
1F
100
AcDbEntity
  8
1
  6
Continuous
 62
     7
370
     9
100
AcDbLine
 10
124.14439016854
 20
365.1170807789473
 30
0.0
 11
171.14439016854
 21
365.1170807789473
 31
0.0
  0
LINE
  5
317
330
1F
100
AcDbEntity
  8
1
  6
Continuous
 62
     7
370
     9
100
AcDbLine
 10
173.14439016854
 20
372.1170807789473
 30
0.0
 11
173.14439016854
 21
367.1170807789473
 31
0.0
  0
LINE
  5
318
330
1F
100
AcDbEntity
  8
1
  6
Continuous
 62
     7
370
     9
100
AcDbLine
 10
172.14439016854
 20
373.1170807789472
 30
0.0
 11
173.14439016854
 21
372.1170807789473
 31
0.0
  0
LINE
  5
319
330
1F
100
AcDbEntity
  8
1
  6
Continuous
 62
     7
370
     9
100
AcDbLine
 10
122.14439016854
 20
372.1170807789473
 30
0.0
 11
123.14439016854
 21
373.1170807789473
 31
0.0
  0
ARC
  5
31A
330
1F
100
AcDbEntity
  8
1
  6
Continuous
 62
     7
370
     9
100
AcDbCircle
 10
171.14439016854
 20
367.1170807789473
 30
0.0
 40
2.0
100
AcDbArc
 50
269.9999999999998
 51
0.0
  0
ARC
  5
31B
330
1F
100
AcDbEntity
  8
1
  6
Continuous
 62
     7
370
     9
100
AcDbCircle
 10
124.14439016854
 20
367.1170807789473
 30
0.0
 40
2.0
100
AcDbArc
 50
179.9999999999998
 51
269.9999999999998
  0
ARC
  5
31C
330
1F
100
AcDbEntity
  8
1
  6
Continuous
 62
     7
370
     9
100
AcDbCircle
 10
147.64439016854
 20
411.1170807789473
 30
0.0
 40
25.5
100
AcDbArc
 50
343.9010660489435
 51
196.0989339510571
  0
ARC
  5
31D
330
1F
100
AcDbEntity
  8
1
  6
Continuous
 62
     7
370
     9
100
AcDbCircle
 10
147.64439016854
 20
411.1170807789473
 30
0.0
 40
24.5
100
AcDbArc
 50
0.0
 51
180.0
  0
LINE
  5
31E
330
1F
100
AcDbEntity
  8
1
  6
Continuous
 62
     7
370
     9
100
AcDbLine
 10
155.9091182627989
 20
720.0692068429239
 30
0.0
 11
155.9091182627989
 21
621.069206842924
 31
0.0
  0
LINE
  5
31F
330
1F
100
AcDbEntity
  8
1
  6
Continuous
 62
     7
370
     9
100
AcDbLine
 10
157.4091182627988
 20
721.5692068429239
 30
0.0
 11
157.4091182627988
 21
619.569206842924
 31
0.0
  0
LINE
  5
320
330
1F
100
AcDbEntity
  8
1
  6
Continuous
 62
     7
370
     9
100
AcDbLine
 10
40.40911826279876
 20
604.5692068429239
 30
0.0
 11
139.4091182627986
 21
604.5692068429239
 31
0.0
  0
LINE
  5
321
330
1F
100
AcDbEntity
  8
1
  6
Continuous
 62
     7
370
     9
100
AcDbLine
 10
155.9091182627989
 20
720.0692068429239
 30
0.0
 11
157.4091182627989
 21
721.5692068429239
 31
0.0
  0
LINE
  5
322
330
1F
100
AcDbEntity
  8
1
  6
Continuous
 62
     7
370
     9
100
AcDbLine
 10
134.9091182627988
 20
720.0692068429239
 30
0.0
 11
155.9091182627989
 21
720.0692068429239
 31
0.0
  0
LINE
  5
323
330
1F
100
AcDbEntity
  8
1
  6
Continuous
 62
     7
370
     9
100
AcDbLine
 10
167.9091182627988
 20
719.5692068429239
 30
0.0
 11
167.9091182627988
 21
621.569206842924
 31
0.0
  0
LINE
  5
324
330
1F
100
AcDbEntity
  8
1
  6
Continuous
 62
     7
370
     9
100
AcDbLine
 10
38.90911826279876
 20
603.0692068429239
 30
0.0
 11
140.9091182627988
 21
603.0692068429239
 31
0.0
  0
LINE
  5
325
330
1F
100
AcDbEntity
  8
1
  6
Continuous
 62
     7
370
     9
100
AcDbLine
 10
147.4091182627988
 20
621.069206842924
 30
0.0
 11
155.9091182627988
 21
621.069206842924
 31
0.0
  0
LINE
  5
326
330
1F
100
AcDbEntity
  8
1
  6
Continuous
 62
     7
370
     9
100
AcDbLine
 10
157.4091182627988
 20
619.569206842924
 30
0.0
 11
165.9091182627988
 21
619.569206842924
 31
0.0
  0
LINE
  5
327
330
1F
100
AcDbEntity
  8
1
  6
Continuous
 62
     7
370
     9
100
AcDbLine
 10
139.4091182627988
 20
613.069206842924
 30
0.0
 11
139.4091182627986
 21
604.5692068429239
 31
0.0
  0
LINE
  5
328
330
1F
100
AcDbEntity
  8
1
  6
Continuous
 62
     7
370
     9
100
AcDbLine
 10
140.9091182627988
 20
603.0692068429239
 30
0.0
 11
140.9091182627988
 21
594.5692068429239
 31
0.0
  0
LINE
  5
329
330
1F
100
AcDbEntity
  8
1
  6
Continuous
 62
     7
370
     9
100
AcDbLine
 10
40.40911826279876
 20
625.569206842924
 30
0.0
 11
40.40911826279876
 21
604.569206842924
 31
0.0
  0
LINE
  5
32A
330
1F
100
AcDbEntity
  8
1
  6
Continuous
 62
     7
370
     9
100
AcDbLine
 10
40.40911826279864
 20
604.5692068429239
 30
0.0
 11
38.90911826279864
 21
603.0692068429239
 31
0.0
  0
LINE
  5
32B
330
1F
100
AcDbEntity
  8
1
  6
Continuous
 62
     7
370
     9
100
AcDbLine
 10
40.90911797079673
 20
592.5692068429239
 30
0.0
 11
138.9091182627988
 21
592.5692068429239
 31
0.0
  0
LINE
  5
32C
330
1F
100
AcDbEntity
  8
1
  6
Continuous
 62
     7
370
     9
100
AcDbLine
 10
139.4091182627986
 20
604.5692068429239
 30
0.0
 11
140.9091182627986
 21
603.069206842924
 31
0.0
  0
LINE
  5
32D
330
1F
100
AcDbEntity
  8
1
  6
Continuous
 62
     7
370
     9
100
AcDbLine
 10
38.90911826279876
 20
603.069206842924
 30
0.0
 11
38.90911826279876
 21
594.5692068429239
 31
0.0
  0
LINE
  5
32E
330
1F
100
AcDbEntity
  8
1
  6
Continuous
 62
     7
370
     9
100
AcDbLine
 10
157.4091182627988
 20
721.5692068429239
 30
0.0
 11
165.9091182627988
 21
721.5692068429239
 31
0.0
  0
LINE
  5
32F
330
1F
100
AcDbEntity
  8
1
  6
Continuous
 62
     7
370
     9
100
AcDbLine
 10
155.9091182627988
 20
621.069206842924
 30
0.0
 11
157.4091182627988
 21
619.569206842924
 31
0.0
  0
LINE
  5
330
330
1F
100
AcDbEntity
  8
1
  6
Continuous
 62
     7
370
     9
100
AcDbLine
 10
104.9198957269882
 20
655.5584293787346
 30
0.0
 11
139.6309436697468
 21
620.847381435976
 31
0.0
  0
ARC
  5
331
330
1F
100
AcDbEntity
  8
1
  6
Continuous
 62
     7
370
     9
100
AcDbCircle
 10
165.9091182627988
 20
719.5692068429239
 30
0.0
 40
2.0
100
AcDbArc
 50
0.0
 51
89.99999999999991
  0
ARC
  5
332
330
1F
100
AcDbEntity
  8
1
  6
Continuous
 62
     7
370
     9
100
AcDbCircle
 10
134.9091182627988
 20
625.569206842924
 30
0.0
 40
94.5
100
AcDbArc
 50
89.99999999999991
 51
179.9999999999998
  0
ARC
  5
333
330
1F
100
AcDbEntity
  8
1
  6
Continuous
 62
     7
370
     9
100
AcDbCircle
 10
138.9091182627988
 20
594.5692068429239
 30
0.0
 40
2.0
100
AcDbArc
 50
269.9999999999998
 51
0.0
  0
ARC
  5
334
330
1F
100
AcDbEntity
  8
1
  6
Continuous
 62
     7
370
     9
100
AcDbCircle
 10
147.4091182627988
 20
613.069206842924
 30
0.0
 40
8.0
100
AcDbArc
 50
89.99999999999991
 51
180.0000000000004
  0
ARC
  5
335
330
1F
100
AcDbEntity
  8
1
  6
Continuous
 62
     7
370
     9
100
AcDbCircle
 10
165.9091182627988
 20
621.569206842924
 30
0.0
 40
2.0
100
AcDbArc
 50
269.9999999999998
 51
0.0
  0
ARC
  5
336
330
1F
100
AcDbEntity
  8
1
  6
Continuous
 62
     7
370
     9
100
AcDbCircle
 10
40.90911826279876
 20
594.5692068429239
 30
0.0
 40
2.0
100
AcDbArc
 50
179.9999999999998
 51
269.9999999999998
  0
ARC
  5
337
330
1F
100
AcDbEntity
  8
1
  6
DASHDOT
 62
     7
370
     9
100
AcDbCircle
 10
134.9091182627988
 20
625.569206842924
 30
0.0
 40
45.0
100
AcDbArc
 50
89.99999999999991
 51
179.9999999999998
  0
LINE
  5
338
330
1F
100
AcDbEntity
  8
1
  6
Continuous
 62
     7
370
     9
100
AcDbLine
 10
309.9091182627988
 20
603.0692068429238
 30
0.0
 11
308.4091182627988
 21
604.5692068429238
 31
0.0
  0
LINE
  5
339
330
1F
100
AcDbEntity
  8
1
  6
Continuous
 62
     7
370
     9
100
AcDbLine
 10
308.4091182627988
 20
658.2911776851153
 30
0.0
 11
308.4091182627988
 21
604.5692068429238
 31
0.0
  0
LINE
  5
33A
330
1F
100
AcDbEntity
  8
1
  6
Continuous
 62
     7
370
     9
100
AcDbLine
 10
207.9091182627988
 20
603.0692068429238
 30
0.0
 11
209.4091182627988
 21
604.5692068429238
 31
0.0
  0
LINE
  5
33B
330
1F
100
AcDbEntity
  8
1
  6
Continuous
 62
     7
370
     9
100
AcDbLine
 10
309.9091182627988
 20
603.0692068429238
 30
0.0
 11
309.9091182627988
 21
594.5692068429238
 31
0.0
  0
LINE
  5
33C
330
1F
100
AcDbEntity
  8
1
  6
Continuous
 62
     7
370
     9
100
AcDbLine
 10
209.4091182627988
 20
604.5692068429238
 30
0.0
 11
308.4091182627988
 21
604.5692068429238
 31
0.0
  0
LINE
  5
33D
330
1F
100
AcDbEntity
  8
1
  6
Continuous
 62
     7
370
     9
100
AcDbLine
 10
207.9091182627988
 20
603.0692068429238
 30
0.0
 11
207.9091182627988
 21
594.5692068429238
 31
0.0
  0
LINE
  5
33E
330
1F
100
AcDbEntity
  8
1
  6
Continuous
 62
     7
370
     9
100
AcDbLine
 10
209.4091182627988
 20
658.2911776851153
 30
0.0
 11
209.4091182627988
 21
604.5692068429238
 31
0.0
  0
LINE
  5
33F
330
1F
100
AcDbEntity
  8
1
  6
Continuous
 62
     7
370
     9
100
AcDbLine
 10
207.9091182627988
 20
603.0692068429238
 30
0.0
 11
309.9091182627988
 21
603.0692068429238
 31
0.0
  0
LINE
  5
340
330
1F
100
AcDbEntity
  8
1
  6
Continuous
 62
     7
370
     9
100
AcDbLine
 10
209.9091182627988
 20
592.5692068429238
 30
0.0
 11
307.9091182627988
 21
592.5692068429238
 31
0.0
  0
CIRCLE
  5
341
330
1F
100
AcDbEntity
  8
1
  6
Continuous
 62
     7
370
     9
100
AcDbCircle
 10
258.9091182627988
 20
670.569206842924
 30
0.0
 40
44.4
  0
CIRCLE
  5
342
330
1F
100
AcDbEntity
  8
1
  6
Continuous
 62
     7
370
     9
100
AcDbCircle
 10
258.9091182627988
 20
670.569206842924
 30
0.0
 40
41.818
  0
CIRCLE
  5
343
330
1F
100
AcDbEntity
  8
1
  6
Continuous
 62
     7
370
     9
100
AcDbCircle
 10
258.9091182627988
 20
670.569206842924
 30
0.0
 40
51.0
  0
ARC
  5
344
330
1F
100
AcDbEntity
  8
1
  6
Continuous
 62
     7
370
     9
100
AcDbCircle
 10
209.9091182627988
 20
594.5692068429238
 30
0.0
 40
2.0
100
AcDbArc
 50
179.9999999999998
 51
269.9999999999998
  0
ARC
  5
345
330
1F
100
AcDbEntity
  8
1
  6
Continuous
 62
     7
370
     9
100
AcDbCircle
 10
307.9091182627988
 20
594.5692068429238
 30
0.0
 40
2.0
100
AcDbArc
 50
269.9999999999998
 51
0.0
  0
CIRCLE
  5
346
330
1F
100
AcDbEntity
  8
1
  6
Continuous
 62
     7
370
     9
100
AcDbCircle
 10
258.9091182627988
 20
670.569206842924
 30
0.0
 40
43.297
  0
LINE
  5
347
330
1F
100
AcDbEntity
  8
1
  6
Continuous
 62
     7
370
     9
100
AcDbLine
 10
734.7734497500788
 20
592.5692068429238
 30
0.0
 11
860.7734497500788
 21
592.5692068429238
 31
0.0
  0
LINE
  5
348
330
1F
100
AcDbEntity
  8
1
  6
Continuous
 62
     7
370
     9
100
AcDbLine
 10
732.7734497500788
 20
605.0692068429238
 30
0.0
 11
862.7734497500788
 21
605.0692068429238
 31
0.0
  0
LINE
  5
349
330
1F
100
AcDbEntity
  8
1
  6
Continuous
 62
     7
370
     9
100
AcDbLine
 10
734.7734497500788
 20
607.0692068429238
 30
0.0
 11
860.7734497500786
 21
607.0692068429238
 31
0.0
  0
LINE
  5
34A
330
1F
100
AcDbEntity
  8
1
  6
Continuous
 62
     7
370
     9
100
AcDbLine
 10
732.7734497500788
 20
605.0692068429238
 30
0.0
 11
732.7734497500788
 21
594.5692068429238
 31
0.0
  0
LINE
  5
34B
330
1F
100
AcDbEntity
  8
1
  6
Continuous
 62
     7
370
     9
100
AcDbLine
 10
862.7734497500788
 20
605.0692068429238
 30
0.0
 11
862.7734497500788
 21
594.5692068429238
 31
0.0
  0
LINE
  5
34C
330
1F
100
AcDbEntity
  8
1
  6
Continuous
 62
     7
370
     9
100
AcDbLine
 10
860.7734497500788
 20
672.5068284387148
 30
0.0
 11
860.7734497500788
 21
607.0692068429238
 31
0.0
  0
LINE
  5
34D
330
1F
100
AcDbEntity
  8
1
  6
Continuous
 62
     7
370
     9
100
AcDbLine
 10
734.7734497500788
 20
672.5068284387149
 30
0.0
 11
734.7734497500788
 21
607.0692068429238
 31
0.0
  0
LINE
  5
34E
330
1F
100
AcDbEntity
  8
1
  6
Continuous
 62
     7
370
     9
100
AcDbLine
 10
732.7734497500788
 20
605.0692068429238
 30
0.0
 11
734.7734497500788
 21
607.0692068429238
 31
0.0
  0
LINE
  5
34F
330
1F
100
AcDbEntity
  8
1
  6
Continuous
 62
     7
370
     9
100
AcDbLine
 10
860.7734497500788
 20
607.0692068429238
 30
0.0
 11
862.7734497500786
 21
605.0692068429238
 31
0.0
  0
ARC
  5
350
330
1F
100
AcDbEntity
  8
1
  6
Continuous
 62
     7
370
     9
100
AcDbCircle
 10
734.7734497500788
 20
594.5692068429237
 30
0.0
 40
2.0
100
AcDbArc
 50
179.9999999999998
 51
269.9999999999998
  0
ARC
  5
351
330
1F
100
AcDbEntity
  8
1
  6
Continuous
 62
     7
370
     9
100
AcDbCircle
 10
860.7734497500788
 20
594.5692068429237
 30
0.0
 40
2.000000000000007
100
AcDbArc
 50
269.9999999999998
 51
0.0
  0
CIRCLE
  5
352
330
1F
100
AcDbEntity
  8
1
  6
Continuous
 62
     7
370
     9
100
AcDbCircle
 10
797.7734497500786
 20
688.569206842924
 30
0.0
 40
65.00000000000001
  0
CIRCLE
  5
353
330
1F
100
AcDbEntity
  8
1
  6
Continuous
 62
     7
370
     9
100
AcDbCircle
 10
797.7734497500786
 20
688.569206842924
 30
0.0
 40
56.95
  0
CIRCLE
  5
354
330
1F
100
AcDbEntity
  8
1
  6
Continuous
 62
     7
370
     9
100
AcDbCircle
 10
797.7734497500786
 20
688.569206842924
 30
0.0
 40
56.515
  0
CIRCLE
  5
355
330
1F
100
AcDbEntity
  8
1
  6
Continuous
 62
     7
370
     9
100
AcDbCircle
 10
797.7734497500786
 20
688.569206842924
 30
0.0
 40
55.36
  0
LINE
  5
356
330
1F
100
AcDbEntity
  8
1
  6
Continuous
 62
     7
370
     9
100
AcDbLine
 10
209.9091182627988
 20
761.569206842924
 30
0.0
 11
307.9091182627988
 21
761.569206842924
 31
0.0
  0
LINE
  5
357
330
1F
100
AcDbEntity
  8
1
  6
Continuous
 62
     7
370
     9
100
AcDbLine
 10
207.9091182627988
 20
772.069206842924
 30
0.0
 11
309.9091182627988
 21
772.069206842924
 31
0.0
  0
LINE
  5
358
330
1F
100
AcDbEntity
  8
1
  6
Continuous
 62
     7
370
     9
100
AcDbLine
 10
209.4091182627988
 20
839.5692068429241
 30
0.0
 11
209.4091182627988
 21
773.569206842924
 31
0.0
  0
LINE
  5
359
330
1F
100
AcDbEntity
  8
1
  6
Continuous
 62
     7
370
     9
100
AcDbLine
 10
207.9091182627988
 20
772.069206842924
 30
0.0
 11
207.9091182627988
 21
763.569206842924
 31
0.0
  0
LINE
  5
35A
330
1F
100
AcDbEntity
  8
1
  6
Continuous
 62
     7
370
     9
100
AcDbLine
 10
209.4091182627988
 20
773.569206842924
 30
0.0
 11
308.4091182627988
 21
773.569206842924
 31
0.0
  0
LINE
  5
35B
330
1F
100
AcDbEntity
  8
1
  6
Continuous
 62
     7
370
     9
100
AcDbLine
 10
309.9091182627988
 20
772.069206842924
 30
0.0
 11
309.9091182627988
 21
763.569206842924
 31
0.0
  0
LINE
  5
35C
330
1F
100
AcDbEntity
  8
1
  6
Continuous
 62
     7
370
     9
100
AcDbLine
 10
207.9091182627988
 20
772.069206842924
 30
0.0
 11
209.4091182627988
 21
773.569206842924
 31
0.0
  0
LINE
  5
35D
330
1F
100
AcDbEntity
  8
1
  6
Continuous
 62
     7
370
     9
100
AcDbLine
 10
308.4091182627988
 20
839.5692068429241
 30
0.0
 11
308.4091182627988
 21
773.569206842924
 31
0.0
  0
LINE
  5
35E
330
1F
100
AcDbEntity
  8
1
  6
Continuous
 62
     7
370
     9
100
AcDbLine
 10
309.9091182627988
 20
772.069206842924
 30
0.0
 11
308.4091182627988
 21
773.569206842924
 31
0.0
  0
ARC
  5
35F
330
1F
100
AcDbEntity
  8
1
  6
Continuous
 62
     7
370
     9
100
AcDbCircle
 10
307.9091182627988
 20
763.569206842924
 30
0.0
 40
2.0
100
AcDbArc
 50
269.9999999999998
 51
0.0
  0
ARC
  5
360
330
1F
100
AcDbEntity
  8
1
  6
Continuous
 62
     7
370
     9
100
AcDbCircle
 10
209.9091182627988
 20
763.569206842924
 30
0.0
 40
2.0
100
AcDbArc
 50
179.9999999999998
 51
269.9999999999998
  0
ARC
  5
361
330
1F
100
AcDbEntity
  8
1
  6
Continuous
 62
     7
370
     9
100
AcDbCircle
 10
258.9091182627988
 20
839.5692068429241
 30
0.0
 40
51.0
100
AcDbArc
 50
346.0694454376427
 51
193.9305545623579
  0
ARC
  5
362
330
1F
100
AcDbEntity
  8
1
  6
Continuous
 62
     7
370
     9
100
AcDbCircle
 10
258.9091182627988
 20
839.5692068429241
 30
0.0
 40
49.5
100
AcDbArc
 50
0.0
 51
179.9999999999999
  0
LINE
  5
363
330
1F
100
AcDbEntity
  8
1
  6
Continuous
 62
     7
370
     9
100
AcDbLine
 10
860.7734497500786
 20
808.069206842924
 30
0.0
 11
862.7734497500786
 21
806.069206842924
 31
0.0
  0
LINE
  5
364
330
1F
100
AcDbEntity
  8
1
  6
Continuous
 62
     7
370
     9
100
AcDbLine
 10
732.7734497500788
 20
806.0692068429239
 30
0.0
 11
734.7734497500788
 21
808.069206842924
 31
0.0
  0
LINE
  5
365
330
1F
100
AcDbEntity
  8
1
  6
Continuous
 62
     7
370
     9
100
AcDbLine
 10
734.7734497500788
 20
889.5692128366743
 30
0.0
 11
734.7734497500788
 21
808.069206842924
 31
0.0
  0
LINE
  5
366
330
1F
100
AcDbEntity
  8
1
  6
Continuous
 62
     7
370
     9
100
AcDbLine
 10
860.7734497500788
 20
889.5692068429242
 30
0.0
 11
860.7734497500788
 21
808.069206842924
 31
0.0
  0
LINE
  5
367
330
1F
100
AcDbEntity
  8
1
  6
Continuous
 62
     7
370
     9
100
AcDbLine
 10
862.7734497500788
 20
806.069206842924
 30
0.0
 11
862.7734497500788
 21
795.569206842924
 31
0.0
  0
LINE
  5
368
330
1F
100
AcDbEntity
  8
1
  6
Continuous
 62
     7
370
     9
100
AcDbLine
 10
732.7734497500788
 20
806.069206842924
 30
0.0
 11
732.7734497500788
 21
795.569206842924
 31
0.0
  0
LINE
  5
369
330
1F
100
AcDbEntity
  8
1
  6
Continuous
 62
     7
370
     9
100
AcDbLine
 10
734.7734497500788
 20
808.069206842924
 30
0.0
 11
860.7734497500786
 21
808.069206842924
 31
0.0
  0
LINE
  5
36A
330
1F
100
AcDbEntity
  8
1
  6
Continuous
 62
     7
370
     9
100
AcDbLine
 10
732.7734497500788
 20
806.069206842924
 30
0.0
 11
862.7734497500788
 21
806.069206842924
 31
0.0
  0
LINE
  5
36B
330
1F
100
AcDbEntity
  8
1
  6
Continuous
 62
     7
370
     9
100
AcDbLine
 10
734.7734497500788
 20
793.569206842924
 30
0.0
 11
860.7734497500788
 21
793.569206842924
 31
0.0
  0
ARC
  5
36C
330
1F
100
AcDbEntity
  8
1
  6
Continuous
 62
     7
370
     9
100
AcDbCircle
 10
797.7734497500786
 20
889.5692068429242
 30
0.0
 40
65.00000000000001
100
AcDbArc
 50
345.7499673021971
 51
194.2500326978047
  0
ARC
  5
36D
330
1F
100
AcDbEntity
  8
1
  6
Continuous
 62
     7
370
     9
100
AcDbCircle
 10
860.7734497500788
 20
795.5692068429239
 30
0.0
 40
2.000000000000007
100
AcDbArc
 50
269.9999999999998
 51
0.0
  0
ARC
  5
36E
330
1F
100
AcDbEntity
  8
1
  6
Continuous
 62
     7
370
     9
100
AcDbCircle
 10
734.7734497500788
 20
795.5692068429239
 30
0.0
 40
2.0
100
AcDbArc
 50
179.9999999999998
 51
269.9999999999998
  0
ARC
  5
36F
330
1F
100
AcDbEntity
  8
1
  6
Continuous
 62
     7
370
     9
100
AcDbCircle
 10
797.7734497500786
 20
889.5692068429242
 30
0.0
 40
63.00000000000011
100
AcDbArc
 50
0.0
 51
180.0000054510572
  0
LINE
  5
370
330
1F
100
AcDbEntity
  8
7
  6
DASHDOT
 62
     4
370
     9
100
AcDbLine
 10
82.89035769828928
 20
123.2776049766719
 30
0.0
 11
82.89035769828928
 21
90.52760497667185
 31
0.0
  0
LINE
  5
371
330
1F
100
AcDbEntity
  8
7
  6
DASHDOT
 62
     4
370
     9
100
AcDbLine
 10
94.14035769828928
 20
111.5276049766719
 30
0.0
 11
71.64035769828928
 21
111.5276049766719
 31
0.0
  0
LINE
  5
372
330
1F
100
AcDbEntity
  8
7
  6
DASHDOT
 62
     4
370
     9
100
AcDbLine
 10
82.89035769828928
 20
78.52760497667184
 30
0.0
 11
82.89035769828928
 21
45.77760497667185
 31
0.0
  0
LINE
  5
373
330
1F
100
AcDbEntity
  8
7
  6
DASHDOT
 62
     4
370
     9
100
AcDbLine
 10
71.64035769828928
 20
67.27760497667184
 30
0.0
 11
94.14035769828928
 21
67.27760497667184
 31
0.0
  0
LINE
  5
374
330
1F
100
AcDbEntity
  8
7
  6
DASHDOT
 62
     4
370
     9
100
AcDbLine
 10
38.64035769828928
 20
67.27760497667185
 30
0.0
 11
38.64035769828928
 21
45.77760497667185
 31
0.0
  0
LINE
  5
375
330
1F
100
AcDbEntity
  8
7
  6
DASHDOT
 62
     4
370
     9
100
AcDbLine
 10
38.64035769828928
 20
67.27760497667185
 30
0.0
 11
60.14035769828928
 21
67.27760497667185
 31
0.0
  0
LINE
  5
376
330
1F
100
AcDbEntity
  8
7
  6
DASHDOT
 62
     4
370
     9
100
AcDbLine
 10
214.1403576982893
 20
69.27760497667185
 30
0.0
 11
190.1403576982893
 21
69.27760497667185
 31
0.0
  0
LINE
  5
377
330
1F
100
AcDbEntity
  8
7
  6
DASHDOT
 62
     4
370
     9
100
AcDbLine
 10
190.1403576982893
 20
45.77760497667185
 30
0.0
 11
190.1403576982893
 21
69.27760497667185
 31
0.0
  0
LINE
  5
378
330
1F
100
AcDbEntity
  8
7
  6
DASHDOT
 62
     4
370
     9
100
AcDbLine
 10
238.1403576982893
 20
82.27760497667185
 30
0.0
 11
238.1403576982893
 21
45.77760497667185
 31
0.0
  0
LINE
  5
379
330
1F
100
AcDbEntity
  8
7
  6
DASHDOT
 62
     4
370
     9
100
AcDbLine
 10
227.9403576982893
 20
69.27760497667185
 30
0.0
 11
251.1403576982893
 21
69.27760497667185
 31
0.0
  0
LINE
  5
37A
330
1F
100
AcDbEntity
  8
7
  6
DASHDOT
 62
     4
370
     9
100
AcDbLine
 10
238.1403576982893
 20
130.2776050022719
 30
0.0
 11
238.1403576982893
 21
93.77760500227186
 31
0.0
  0
LINE
  5
37B
330
1F
100
AcDbEntity
  8
7
  6
DASHDOT
 62
     4
370
     9
100
AcDbLine
 10
225.1403576982893
 20
117.2776050022719
 30
0.0
 11
251.1403576982893
 21
117.2776050022719
 31
0.0
  0
LINE
  5
37C
330
1F
100
AcDbEntity
  8
7
  6
DASHDOT
 62
     4
370
     9
100
AcDbLine
 10
347.1403576982893
 20
72.77760497667181
 30
0.0
 11
374.1403576982892
 21
72.77760497667181
 31
0.0
  0
LINE
  5
37D
330
1F
100
AcDbEntity
  8
7
  6
DASHDOT
 62
     4
370
     9
100
AcDbLine
 10
347.1403576982893
 20
45.77760497667185
 30
0.0
 11
347.1403576982893
 21
72.77760497667181
 31
0.0
  0
LINE
  5
37E
330
1F
100
AcDbEntity
  8
7
  6
DASHDOT
 62
     4
370
     9
100
AcDbLine
 10
401.8903577548805
 20
88.5276049766718
 30
0.0
 11
401.8903577548805
 21
45.77760497667185
 31
0.0
  0
LINE
  5
37F
330
1F
100
AcDbEntity
  8
7
  6
DASHDOT
 62
     4
370
     9
100
AcDbLine
 10
386.1403577548805
 20
72.77760497667181
 30
0.0
 11
417.6403577548806
 21
72.77760497667181
 31
0.0
  0
LINE
  5
380
330
1F
100
AcDbEntity
  8
7
  6
DASHDOT
 62
     4
370
     9
100
AcDbLine
 10
386.1403577548805
 20
127.5276049766718
 30
0.0
 11
417.6403577548806
 21
127.5276049766718
 31
0.0
  0
LINE
  5
381
330
1F
100
AcDbEntity
  8
7
  6
DASHDOT
 62
     4
370
     9
100
AcDbLine
 10
401.8903577548805
 20
143.2776049766717
 30
0.0
 11
401.8903577548805
 21
100.5276049766718
 31
0.0
  0
LINE
  5
382
330
1F
100
AcDbEntity
  8
7
  6
DASHDOT
 62
     4
370
     9
100
AcDbLine
 10
556.6403577548808
 20
76.77760497667187
 30
0.0
 11
592.6403577548808
 21
76.77760497667187
 31
0.0
  0
LINE
  5
383
330
1F
100
AcDbEntity
  8
7
  6
DASHDOT
 62
     4
370
     9
100
AcDbLine
 10
574.6403577548808
 20
94.77760497667185
 30
0.0
 11
574.6403577548808
 21
45.77760497667185
 31
0.0
  0
LINE
  5
384
330
1F
100
AcDbEntity
  8
7
  6
DASHDOT
 62
     4
370
     9
100
AcDbLine
 10
556.6403577548808
 20
137.7776049766719
 30
0.0
 11
592.6403577548808
 21
137.7776049766719
 31
0.0
  0
LINE
  5
385
330
1F
100
AcDbEntity
  8
7
  6
DASHDOT
 62
     4
370
     9
100
AcDbLine
 10
574.6403577548808
 20
155.7776049766719
 30
0.0
 11
574.6403577548808
 21
106.7776049766718
 31
0.0
  0
LINE
  5
386
330
1F
100
AcDbEntity
  8
7
  6
DASHDOT
 62
     4
370
     9
100
AcDbLine
 10
513.6403577548807
 20
76.77760497667187
 30
0.0
 11
513.6403577548807
 21
45.77760497667187
 31
0.0
  0
LINE
  5
387
330
1F
100
AcDbEntity
  8
7
  6
DASHDOT
 62
     4
370
     9
100
AcDbLine
 10
513.6403577548807
 20
76.77760497667187
 30
0.0
 11
544.6403577548807
 21
76.77760497667187
 31
0.0
  0
LINE
  5
388
330
1F
100
AcDbEntity
  8
7
  6
DASHDOT
 62
     4
370
     9
100
AcDbLine
 10
688.6403577548807
 20
81.77760497667195
 30
0.0
 11
724.6403577548808
 21
81.77760497667195
 31
0.0
  0
LINE
  5
389
330
1F
100
AcDbEntity
  8
7
  6
DASHDOT
 62
     4
370
     9
100
AcDbLine
 10
688.6403577548807
 20
81.77760497667195
 30
0.0
 11
688.6403577548807
 21
45.77760497667185
 31
0.0
  0
LINE
  5
38A
330
1F
100
AcDbEntity
  8
7
  6
DASHDOT
 62
     4
370
     9
100
AcDbLine
 10
757.6403577548808
 20
102.777604976672
 30
0.0
 11
757.6403577548808
 21
45.77760497667195
 31
0.0
  0
LINE
  5
38B
330
1F
100
AcDbEntity
  8
7
  6
DASHDOT
 62
     4
370
     9
100
AcDbLine
 10
736.6403577548808
 20
81.77760497667195
 30
0.0
 11
778.6403577548808
 21
81.77760497667195
 31
0.0
  0
LINE
  5
38C
330
1F
100
AcDbEntity
  8
7
  6
DASHDOT
 62
     4
370
     9
100
AcDbLine
 10
736.6403577548808
 20
150.777604976672
 30
0.0
 11
778.6403577548808
 21
150.777604976672
 31
0.0
  0
LINE
  5
38D
330
1F
100
AcDbEntity
  8
7
  6
DASHDOT
 62
     4
370
     9
100
AcDbLine
 10
757.6403577548808
 20
171.777604976672
 30
0.0
 11
757.6403577548808
 21
114.777604976672
 31
0.0
  0
LINE
  5
38E
330
1F
100
AcDbEntity
  8
7
  6
DASHDOT
 62
     4
370
     9
100
AcDbLine
 10
948.8903577548807
 20
166.2251997821089
 30
0.0
 11
997.6979005231542
 21
166.2251997821089
 31
0.0
  0
LINE
  5
38F
330
1F
100
AcDbEntity
  8
7
  6
DASHDOT
 62
     4
370
     9
100
AcDbLine
 10
973.3903577548807
 20
190.7251997821089
 30
0.0
 11
973.3903577548807
 21
124.2251997821084
 31
0.0
  0
LINE
  5
390
330
1F
100
AcDbEntity
  8
7
  6
DASHDOT
 62
     4
370
     9
100
AcDbLine
 10
973.3903577548807
 20
112.2776049766724
 30
0.0
 11
973.3903577548807
 21
45.77760497667185
 31
0.0
  0
LINE
  5
391
330
1F
100
AcDbEntity
  8
7
  6
DASHDOT
 62
     4
370
     9
100
AcDbLine
 10
948.8903577548807
 20
87.77760497667242
 30
0.0
 11
997.6979005231542
 21
87.77760497667242
 31
0.0
  0
LINE
  5
392
330
1F
100
AcDbEntity
  8
7
  6
DASHDOT
 62
     4
370
     9
100
AcDbLine
 10
894.8903577548807
 20
87.77760497667242
 30
0.0
 11
894.8903577548807
 21
45.77760497667242
 31
0.0
  0
LINE
  5
393
330
1F
100
AcDbEntity
  8
7
  6
DASHDOT
 62
     4
370
     9
100
AcDbLine
 10
894.8903577548807
 20
87.77760497667242
 30
0.0
 11
936.8903577548807
 21
87.77760497667242
 31
0.0
  0
LINE
  5
394
330
1F
100
AcDbEntity
  8
7
  6
DASHDOT
 62
     4
370
     9
100
AcDbLine
 10
989.8943901685401
 20
524.0170807789475
 30
0.0
 11
989.8943901685401
 21
402.8670807789474
 31
0.0
  0
LINE
  5
395
330
1F
100
AcDbEntity
  8
7
  6
DASHDOT
 62
     4
370
     9
100
AcDbLine
 10
941.7443901685402
 20
475.8670807789476
 30
0.0
 11
1038.04439016854
 21
475.8670807789476
 31
0.0
  0
LINE
  5
396
330
1F
100
AcDbEntity
  8
7
  6
DASHDOT
 62
     4
370
     9
100
AcDbLine
 10
941.7443901685402
 20
342.6170807789474
 30
0.0
 11
1038.04439016854
 21
342.6170807789474
 31
0.0
  0
LINE
  5
397
330
1F
100
AcDbEntity
  8
7
  6
DASHDOT
 62
     4
370
     9
100
AcDbLine
 10
989.8943901685401
 20
390.7670807789474
 30
0.0
 11
989.8943901685401
 21
269.6170807789473
 31
0.0
  0
LINE
  5
398
330
1F
100
AcDbEntity
  8
7
  6
DASHDOT
 62
     4
370
     9
100
AcDbLine
 10
856.6443901685403
 20
342.6170807789474
 30
0.0
 11
856.6443901685403
 21
269.6170807789473
 31
0.0
  0
LINE
  5
399
330
1F
100
AcDbEntity
  8
7
  6
DASHDOT
 62
     4
370
     9
100
AcDbLine
 10
856.6443901685403
 20
342.6170807789474
 30
0.0
 11
929.6443901685403
 21
342.6170807789474
 31
0.0
  0
LINE
  5
39A
330
1F
100
AcDbEntity
  8
7
  6
DASHDOT
 62
     4
370
     9
100
AcDbLine
 10
637.3943901685402
 20
443.1170807789476
 30
0.0
 11
716.3943901685402
 21
443.1170807789476
 31
0.0
  0
LINE
  5
39B
330
1F
100
AcDbEntity
  8
7
  6
DASHDOT
 62
     4
370
     9
100
AcDbLine
 10
676.8943901685402
 20
482.6170807789476
 30
0.0
 11
676.8943901685402
 21
382.1170807789475
 31
0.0
  0
LINE
  5
39C
330
1F
100
AcDbEntity
  8
7
  6
DASHDOT
 62
     4
370
     9
100
AcDbLine
 10
676.8943901685402
 20
370.1170807789474
 30
0.0
 11
676.8943901685402
 21
269.6170807789473
 31
0.0
  0
LINE
  5
39D
330
1F
100
AcDbEntity
  8
7
  6
DASHDOT
 62
     4
370
     9
100
AcDbLine
 10
637.3943901685402
 20
330.6170807789474
 30
0.0
 11
716.3943901685402
 21
330.6170807789474
 31
0.0
  0
LINE
  5
39E
330
1F
100
AcDbEntity
  8
7
  6
DASHDOT
 62
     4
370
     9
100
AcDbLine
 10
564.3943901685402
 20
330.6170807789474
 30
0.0
 11
625.3943901685402
 21
330.6170807789474
 31
0.0
  0
LINE
  5
39F
330
1F
100
AcDbEntity
  8
7
  6
DASHDOT
 62
     4
370
     9
100
AcDbLine
 10
564.3943901685402
 20
330.6170807789474
 30
0.0
 11
564.3943901685402
 21
269.6170807789474
 31
0.0
  0
LINE
  5
3A0
330
1F
100
AcDbEntity
  8
7
  6
PHANTOM
 62
     4
370
     9
100
AcDbLine
 10
399.64439016854
 20
366.8670807789473
 30
0.0
 11
399.64439016854
 21
452.1170807789473
 31
0.0
  0
LINE
  5
3A1
330
1F
100
AcDbEntity
  8
7
  6
DASHDOT
 62
     4
370
     9
100
AcDbLine
 10
366.39439016854
 20
418.8670807789473
 30
0.0
 11
432.89439016854
 21
418.8670807789473
 31
0.0
  0
LINE
  5
3A2
330
1F
100
AcDbEntity
  8
7
  6
DASHDOT
 62
     4
370
     9
100
AcDbLine
 10
302.39439016854
 20
321.6170807789473
 30
0.0
 11
302.39439016854
 21
269.6170807789473
 31
0.0
  0
LINE
  5
3A3
330
1F
100
AcDbEntity
  8
7
  6
DASHDOT
 62
     4
370
     9
100
AcDbLine
 10
302.39439016854
 20
321.6170807789473
 30
0.0
 11
354.39439016854
 21
321.6170807789473
 31
0.0
  0
LINE
  5
3A4
330
1F
100
AcDbEntity
  8
7
  6
DASHDOT
 62
     4
370
     9
100
AcDbLine
 10
366.39439016854
 20
321.6170807789473
 30
0.0
 11
432.89439016854
 21
321.6170807789473
 31
0.0
  0
LINE
  5
3A5
330
1F
100
AcDbEntity
  8
7
  6
PHANTOM
 62
     4
370
     9
100
AcDbLine
 10
399.64439016854
 20
269.6170807789473
 30
0.0
 11
399.64439016854
 21
354.8670807789473
 31
0.0
  0
LINE
  5
3A6
330
1F
100
AcDbEntity
  8
7
  6
PHANTOM
 62
     4
370
     9
100
AcDbLine
 10
147.64439016854
 20
361.1170807789473
 30
0.0
 11
147.64439016854
 21
440.6170807789473
 31
0.0
  0
LINE
  5
3A7
330
1F
100
AcDbEntity
  8
7
  6
DASHDOT
 62
     4
370
     9
100
AcDbLine
 10
118.14439016854
 20
411.1170807789473
 30
0.0
 11
177.14439016854
 21
411.1170807789473
 31
0.0
  0
LINE
  5
3A8
330
1F
100
AcDbEntity
  8
7
  6
PHANTOM
 62
     4
370
     9
100
AcDbLine
 10
147.64439016854
 20
269.6170807789473
 30
0.0
 11
147.64439016854
 21
349.1170807789473
 31
0.0
  0
LINE
  5
3A9
330
1F
100
AcDbEntity
  8
7
  6
DASHDOT
 62
     4
370
     9
100
AcDbLine
 10
118.14439016854
 20
319.6170807789473
 30
0.0
 11
177.14439016854
 21
319.6170807789473
 31
0.0
  0
LINE
  5
3AA
330
1F
100
AcDbEntity
  8
7
  6
DASHDOT
 62
     4
370
     9
100
AcDbLine
 10
56.14439016853999
 20
319.6170807789473
 30
0.0
 11
56.14439016853999
 21
269.6170807789473
 31
0.0
  0
LINE
  5
3AB
330
1F
100
AcDbEntity
  8
7
  6
DASHDOT
 62
     4
370
     9
100
AcDbLine
 10
56.14439016853999
 20
319.6170807789473
 30
0.0
 11
106.14439016854
 21
319.6170807789473
 31
0.0
  0
LINE
  5
3AC
330
1F
100
AcDbEntity
  8
7
  6
DASHDOT
 62
     4
370
     9
100
AcDbLine
 10
89.90911826279876
 20
670.569206842924
 30
0.0
 11
171.9091182627988
 21
670.569206842924
 31
0.0
  0
LINE
  5
3AD
330
1F
100
AcDbEntity
  8
7
  6
DASHDOT
 62
     4
370
     9
100
AcDbLine
 10
89.90911826279876
 20
670.569206842924
 30
0.0
 11
89.90911826279876
 21
588.5692068429239
 31
0.0
  0
LINE
  5
3AE
330
1F
100
AcDbEntity
  8
7
  6
DASHDOT
 62
     4
370
     9
100
AcDbLine
 10
258.9091182627988
 20
894.5692068429241
 30
0.0
 11
258.9091182627988
 21
757.569206842924
 31
0.0
  0
LINE
  5
3AF
330
1F
100
AcDbEntity
  8
7
  6
DASHDOT
 62
     4
370
     9
100
AcDbLine
 10
203.9091182627988
 20
839.5692068429241
 30
0.0
 11
313.9091182627988
 21
839.5692068429241
 31
0.0
  0
LINE
  5
3B0
330
1F
100
AcDbEntity
  8
7
  6
DASHDOT
 62
     4
370
     9
100
AcDbLine
 10
203.9091182627988
 20
670.569206842924
 30
0.0
 11
313.9091182627988
 21
670.569206842924
 31
0.0
  0
LINE
  5
3B1
330
1F
100
AcDbEntity
  8
7
  6
DASHDOT
 62
     4
370
     9
100
AcDbLine
 10
258.9091182627988
 20
725.5692068429239
 30
0.0
 11
258.9091182627988
 21
588.5692068429238
 31
0.0
  0
LINE
  5
3B2
330
1F
100
AcDbEntity
  8
7
  6
DASHDOT
 62
     4
370
     9
100
AcDbLine
 10
596.7734497500788
 20
688.569206842924
 30
0.0
 11
696.7734497500788
 21
688.569206842924
 31
0.0
  0
LINE
  5
3B3
330
1F
100
AcDbEntity
  8
7
  6
DASHDOT
 62
     4
370
     9
100
AcDbLine
 10
596.7734497500788
 20
688.569206842924
 30
0.0
 11
596.7734497500788
 21
588.569206842924
 31
0.0
  0
LINE
  5
3B4
330
1F
100
AcDbEntity
  8
7
  6
DASHDOT
 62
     4
370
     9
100
AcDbLine
 10
728.7734497500786
 20
889.5692068429242
 30
0.0
 11
866.7734497500786
 21
889.5692068429242
 31
0.0
  0
LINE
  5
3B5
330
1F
100
AcDbEntity
  8
7
  6
DASHDOT
 62
     4
370
     9
100
AcDbLine
 10
797.7734497500786
 20
958.5692068429242
 30
0.0
 11
797.7734497500786
 21
789.569206842924
 31
0.0
  0
LINE
  5
3B6
330
1F
100
AcDbEntity
  8
7
  6
DASHDOT
 62
     4
370
     9
100
AcDbLine
 10
797.7734497500786
 20
757.569206842924
 30
0.0
 11
797.7734497500786
 21
588.5692068429238
 31
0.0
  0
LINE
  5
3B7
330
1F
100
AcDbEntity
  8
7
  6
DASHDOT
 62
     4
370
     9
100
AcDbLine
 10
728.7734497500786
 20
688.569206842924
 30
0.0
 11
866.7734497500786
 21
688.569206842924
 31
0.0
  0
MTEXT
  5
3B8
330
1F
100
AcDbEntity
  8
1
  6
Continuous
 62
     7
370
     9
100
AcDbMText
 10
932.3559851227512
 20
15.29553309141176
 30
0.0
 40
20.0
 41
49.02482482482482
 46
20.0
 71
     8
 72
     1
  1
{\fＭＳ 明朝;\T0.750000;25A}
 73
     1
 44
1.0
1001
ACAD
1000
ACAD_MTEXT_DEFINED_HEIGHT_BEGIN
1070
    46
1040
20.0
1000
ACAD_MTEXT_DEFINED_HEIGHT_END
  0
MTEXT
  5
3B9
330
1F
100
AcDbEntity
  8
1
  6
Continuous
 62
     7
370
     9
100
AcDbMText
 10
720.4710706592975
 20
15.29553309141176
 30
0.0
 40
20.0
 41
49.02482482482482
 46
20.0
 71
     8
 72
     1
  1
{\fＭＳ 明朝;\T0.750000;20A}
 73
     1
 44
1.0
1001
ACAD
1000
ACAD_MTEXT_DEFINED_HEIGHT_BEGIN
1070
    46
1040
20.0
1000
ACAD_MTEXT_DEFINED_HEIGHT_END
  0
MTEXT
  5
3BA
330
1F
100
AcDbEntity
  8
1
  6
Continuous
 62
     7
370
     9
100
AcDbMText
 10
546.5161717479435
 20
15.29553309141176
 30
0.0
 40
20.0
 41
46.40940940940941
 46
20.0
 71
     8
 72
     1
  1
{\fＭＳ 明朝;\T0.750000;15A}
 73
     1
 44
1.0
1001
ACAD
1000
ACAD_MTEXT_DEFINED_HEIGHT_BEGIN
1070
    46
1040
20.0
1000
ACAD_MTEXT_DEFINED_HEIGHT_END
  0
MTEXT
  5
3BB
330
1F
100
AcDbEntity
  8
1
  6
Continuous
 62
     7
370
     9
100
AcDbMText
 10
376.4850675488756
 20
15.29553309141176
 30
0.0
 40
20.0
 41
46.40940940940941
 46
20.0
 71
     8
 72
     1
  1
{\fＭＳ 明朝;\T0.750000;10A}
 73
     1
 44
1.0
1001
ACAD
1000
ACAD_MTEXT_DEFINED_HEIGHT_BEGIN
1070
    46
1040
20.0
1000
ACAD_MTEXT_DEFINED_HEIGHT_END
  0
MTEXT
  5
3BC
330
1F
100
AcDbEntity
  8
1
  6
Continuous
 62
     7
370
     9
100
AcDbMText
 10
216.9174159159043
 20
15.29553309141176
 30
0.0
 40
20.0
 41
33.75165165165165
 46
20.0
 71
     8
 72
     1
  1
{\fＭＳ 明朝;\T0.750000;8A}
 73
     1
 44
1.0
1001
ACAD
1000
ACAD_MTEXT_DEFINED_HEIGHT_BEGIN
1070
    46
1040
20.0
1000
ACAD_MTEXT_DEFINED_HEIGHT_END
  0
MTEXT
  5
3BD
330
1F
100
AcDbEntity
  8
1
  6
Continuous
 62
     7
370
     9
100
AcDbMText
 10
58.65769585369492
 20
15.29553309141176
 30
0.0
 40
20.0
 41
33.58108108108108
 46
20.0
 71
     8
 72
     1
  1
{\fＭＳ 明朝;\T0.750000;6A}
 73
     1
 44
1.0
1001
ACAD
1000
ACAD_MTEXT_DEFINED_HEIGHT_BEGIN
1070
    46
1040
20.0
1000
ACAD_MTEXT_DEFINED_HEIGHT_END
  0
MTEXT
  5
3BE
330
1F
100
AcDbEntity
  8
1
  6
Continuous
 62
     7
370
     9
100
AcDbMText
 10
925.816327268941
 20
233.2114653533783
 30
0.0
 40
20.0
 41
49.16696696696696
 46
20.0
 71
     8
 72
     1
  1
{\fＭＳ 明朝;\T0.750000;65A}
 73
     1
 44
1.0
1001
ACAD
1000
ACAD_MTEXT_DEFINED_HEIGHT_BEGIN
1070
    46
1040
20.0
1000
ACAD_MTEXT_DEFINED_HEIGHT_END
  0
MTEXT
  5
3BF
330
1F
100
AcDbEntity
  8
1
  6
Continuous
 62
     7
370
     9
100
AcDbMText
 10
628.9158607059533
 20
233.2114653533783
 30
0.0
 40
20.0
 41
48.68368368368368
 46
20.0
 71
     8
 72
     1
  1
{\fＭＳ 明朝;\T0.750000;50A}
 73
     1
 44
1.0
1001
ACAD
1000
ACAD_MTEXT_DEFINED_HEIGHT_BEGIN
1070
    46
1040
20.0
1000
ACAD_MTEXT_DEFINED_HEIGHT_END
  0
MTEXT
  5
3C0
330
1F
100
AcDbEntity
  8
1
  6
Continuous
 62
     7
370
     9
100
AcDbMText
 10
363.1443901041758
 20
233.2114653533783
 30
0.0
 40
20.0
 41
49.67867867867867
 46
20.0
 71
     8
 72
     1
  1
{\fＭＳ 明朝;\T0.750000;40A}
 73
     1
 44
1.0
1001
ACAD
1000
ACAD_MTEXT_DEFINED_HEIGHT_BEGIN
1070
    46
1040
20.0
1000
ACAD_MTEXT_DEFINED_HEIGHT_END
  0
MTEXT
  5
3C1
330
1F
100
AcDbEntity
  8
1
  6
Continuous
 62
     7
370
     9
100
AcDbMText
 10
104.4353008303671
 20
233.2114653533783
 30
0.0
 40
20.0
 41
48.68368368368368
 46
20.0
 71
     8
 72
     1
  1
{\fＭＳ 明朝;\T0.750000;32A}
 73
     1
 44
1.0
1001
ACAD
1000
ACAD_MTEXT_DEFINED_HEIGHT_BEGIN
1070
    46
1040
20.0
1000
ACAD_MTEXT_DEFINED_HEIGHT_END
  0
MTEXT
  5
3C2
330
1F
100
AcDbEntity
  8
1
  6
Continuous
 62
     7
370
     9
100
AcDbMText
 10
699.5441655271046
 20
540.9386988076725
 30
0.0
 40
20.0
 41
61.99529529529529
 46
20.0
 71
     8
 72
     1
  1
{\fＭＳ 明朝;\T0.750000;100A}
 73
     1
 44
1.0
1001
ACAD
1000
ACAD_MTEXT_DEFINED_HEIGHT_BEGIN
1070
    46
1040
20.0
1000
ACAD_MTEXT_DEFINED_HEIGHT_END
  0
MTEXT
  5
3C3
330
1F
100
AcDbEntity
  8
1
  6
Continuous
 62
     7
370
     9
100
AcDbMText
 10
176.3715372222804
 20
540.9386988076725
 30
0.0
 40
20.0
 41
49.33753753753754
 46
20.0
 71
     8
 72
     1
  1
{\fＭＳ 明朝;\T0.750000;80A}
 73
     1
 44
1.0
1001
ACAD
1000
ACAD_MTEXT_DEFINED_HEIGHT_BEGIN
1070
    46
1040
20.0
1000
ACAD_MTEXT_DEFINED_HEIGHT_END
  0
VIEWPORT
  5
3F
330
1B
100
AcDbEntity
 67
     1
  8
0
100
AcDbViewport
 10
594.5
 20
420.5
 30
0.0
 40
1189.0
 41
841.0
 68
     1
 69
     1
 12
594.5
 22
420.5
 13
0.0
 23
0.0
 14
0.5
 24
0.5
 15
0.5
 25
0.5
 16
0.0
 26
0.0
 36
1.0
 17
0.0
 27
0.0
 37
0.0
 42
50.0
 43
0.0
 44
0.0
 45
9.0
 50
0.0
 51
0.0
 72
   100
 90
   557152
  1

281
     0
 71
     1
 74
     0
110
0.0
120
0.0
130
0.0
111
1.0
121
0.0
131
0.0
112
0.0
122
1.0
132
0.0
 79
     0
146
0.0
170
     0
 61
     5
292
     1
282
     1
141
0.0
142
0.0
 63
   256
  0
ENDSEC
  0
SECTION
  2
OBJECTS
  0
DICTIONARY
  5
C
330
0
100
AcDbDictionary
281
     1
  3
ACAD_GROUP
350
D
  3
ACAD_LAYOUT
350
1A
  3
ACAD_MATERIAL
350
3B
  3
ACAD_MLEADERSTYLE
350
3E5
  3
ACAD_MLINESTYLE
350
17
  3
ACAD_PLOTSETTINGS
350
19
  3
ACAD_PLOTSTYLENAME
350
E
  3
ACAD_TABLESTYLE
350
3E4
  3
ACAD_VISUALSTYLE
350
2A
  0
DICTIONARY
  5
D
102
{ACAD_REACTORS
330
C
102
}
330
C
100
AcDbDictionary
281
     1
  0
DICTIONARY
  5
1A
102
{ACAD_REACTORS
330
C
102
}
330
C
100
AcDbDictionary
281
     1
  3
Layout1
350
1E
  3
Layout2
350
26
  3
Model
350
22
  0
DICTIONARY
  5
3B
102
{ACAD_REACTORS
330
C
102
}
330
C
100
AcDbDictionary
281
     1
  3
ByBlock
350
3D
  3
ByLayer
350
3C
  3
Global
350
3E
  0
DICTIONARY
  5
3E5
102
{ACAD_REACTORS
330
C
102
}
330
C
100
AcDbDictionary
281
     1
  0
DICTIONARY
  5
17
102
{ACAD_REACTORS
330
C
102
}
330
C
100
AcDbDictionary
281
     1
  3
Standard
350
18
  0
DICTIONARY
  5
19
102
{ACAD_REACTORS
330
C
102
}
330
C
100
AcDbDictionary
281
     1
  0
ACDBDICTIONARYWDFLT
  5
E
102
{ACAD_REACTORS
330
C
102
}
330
C
100
AcDbDictionary
281
     1
  3
Normal
350
F
100
AcDbDictionaryWithDefault
340
F
  0
DICTIONARY
  5
3E4
102
{ACAD_REACTORS
330
C
102
}
330
C
100
AcDbDictionary
281
     1
  0
DICTIONARY
  5
2A
102
{ACAD_REACTORS
330
C
102
}
330
C
100
AcDbDictionary
281
     1
  3
2dWireframe
350
2F
  3
3D Hidden
350
31
  3
3dWireframe
350
30
  3
Basic
350
32
  3
Brighten
350
36
  3
ColorChange
350
3A
  3
Conceptual
350
34
  3
Dim
350
35
  3
Facepattern
350
39
  3
Flat
350
2B
  3
FlatWithEdges
350
2C
  3
Gouraud
350
2D
  3
GouraudWithEdges
350
2E
  3
Linepattern
350
38
  3
Realistic
350
33
  3
Thicken
350
37
  0
LAYOUT
  5
1E
102
{ACAD_REACTORS
330
1A
102
}
330
1A
100
AcDbPlotSettings
  1

  2
none_device
  4

  6

 40
0.0
 41
0.0
 42
0.0
 43
0.0
 44
0.0
 45
0.0
 46
0.0
 47
0.0
 48
0.0
 49
0.0
140
0.0
141
0.0
142
1.0
143
1.0
 70
   688
 72
     0
 73
     0
 74
     5
  7

 75
    16
 76
     0
 77
     2
 78
   300
147
1.0
148
0.0
149
0.0
100
AcDbLayout
  1
Layout1
 70
     1
 71
     1
 10
0.0
 20
0.0
 11
1189.0
 21
841.0
 12
0.0
 22
0.0
 32
0.0
 14
0.0
 24
0.0
 34
0.0
 15
1189.0
 25
841.0
 35
0.0
146
0.0
 13
0.0
 23
0.0
 33
0.0
 16
1.0
 26
0.0
 36
0.0
 17
0.0
 27
1.0
 37
0.0
 76
     0
330
1B
331
3F
  0
LAYOUT
  5
26
102
{ACAD_REACTORS
330
1A
102
}
330
1A
100
AcDbPlotSettings
  1

  2
none_device
  4

  6

 40
0.0
 41
0.0
 42
0.0
 43
0.0
 44
0.0
 45
0.0
 46
0.0
 47
0.0
 48
0.0
 49
0.0
140
0.0
141
0.0
142
1.0
143
1.0
 70
   688
 72
     0
 73
     0
 74
     5
  7

 75
    16
 76
     0
 77
     2
 78
   300
147
1.0
148
0.0
149
0.0
100
AcDbLayout
  1
Layout2
 70
     1
 71
     2
 10
0.0
 20
0.0
 11
0.0
 21
0.0
 12
0.0
 22
0.0
 32
0.0
 14
0.0
 24
0.0
 34
0.0
 15
0.0
 25
0.0
 35
0.0
146
0.0
 13
0.0
 23
0.0
 33
0.0
 16
1.0
 26
0.0
 36
0.0
 17
0.0
 27
1.0
 37
0.0
 76
     0
330
23
  0
LAYOUT
  5
22
102
{ACAD_REACTORS
330
1A
102
}
330
1A
100
AcDbPlotSettings
  1

  2
none_device
  4

  6

 40
0.0
 41
0.0
 42
0.0
 43
0.0
 44
0.0
 45
0.0
 46
0.0
 47
0.0
 48
0.0
 49
0.0
140
0.0
141
0.0
142
1.0
143
1.0
 70
  1712
 72
     0
 73
     0
 74
     0
  7

 75
     0
 76
     0
 77
     2
 78
   300
147
1.0
148
0.0
149
0.0
100
AcDbLayout
  1
Model
 70
     1
 71
     0
 10
0.0
 20
0.0
 11
1189.0
 21
841.0
 12
0.0
 22
0.0
 32
0.0
 14
30.64439016853999
 24
15.29553309141176
 34
0.0
 15
1038.04439016854
 25
958.5692068429242
 35
0.0
146
0.0
 13
0.0
 23
0.0
 33
0.0
 16
1.0
 26
0.0
 36
0.0
 17
0.0
 27
1.0
 37
0.0
 76
     0
330
1F
331
29
  0
MATERIAL
  5
3D
102
{ACAD_REACTORS
330
3B
102
}
330
3B
100
AcDbMaterial
  1
ByBlock
 72
     1
 94
      127
  0
MATERIAL
  5
3C
102
{ACAD_REACTORS
330
3B
102
}
330
3B
100
AcDbMaterial
  1
ByLayer
 72
     1
 94
      127
  0
MATERIAL
  5
3E
102
{ACAD_REACTORS
330
3B
102
}
330
3B
100
AcDbMaterial
  1
Global
 72
     1
 94
      127
  0
MLINESTYLE
  5
18
102
{ACAD_REACTORS
330
17
102
}
330
17
100
AcDbMlineStyle
  2
Standard
 70
     0
  3

 62
   256
 51
90.0
 52
90.0
 71
     2
 49
0.5
 62
   256
  6
BYLAYER
 49
-0.5
 62
   256
  6
BYLAYER
  0
ACDBPLACEHOLDER
  5
F
102
{ACAD_REACTORS
330
E
102
}
330
E
  0
VISUALSTYLE
  5
2F
102
{ACAD_REACTORS
330
2A
102
}
102
{ACAD_XDICTIONARY
360
3CC
102
}
330
2A
100
AcDbVisualStyle
  2
2dWireframe
 70
     4
 71
     0
 72
     2
 73
     0
 90
        0
 40
-0.6
 41
-30.0
 62
     5
 63
     7
421
 16777215
 74
     1
 91
        4
 64
     7
 65
   257
 75
     1
175
     1
 42
1.0
 92
        0
 66
   257
 43
1.0
 76
     1
 77
     6
 78
     2
 67
     7
 79
     5
170
     0
171
     0
290
     0
174
     0
 93
        1
 44
0.0
173
     0
291
     0
 45
0.0
  0
VISUALSTYLE
  5
31
102
{ACAD_REACTORS
330
2A
102
}
102
{ACAD_XDICTIONARY
360
3D0
102
}
330
2A
100
AcDbVisualStyle
  2
3D Hidden
 70
     6
 71
     1
 72
     2
 73
     2
 90
        0
 40
-0.6
 41
-30.0
 62
     5
 63
     7
421
 16777215
 74
     2
 91
        2
 64
     7
 65
   257
 75
     2
175
     1
 42
40.0
 92
        0
 66
   257
 43
1.0
 76
     1
 77
     6
 78
     2
 67
     7
 79
     3
170
     0
171
     0
290
     0
174
     0
 93
        1
 44
0.0
173
     0
291
     0
 45
0.0
  0
VISUALSTYLE
  5
30
102
{ACAD_REACTORS
330
2A
102
}
102
{ACAD_XDICTIONARY
360
3CE
102
}
330
2A
100
AcDbVisualStyle
  2
3dWireframe
 70
     5
 71
     0
 72
     2
 73
     0
 90
        0
 40
-0.6
 41
-30.0
 62
     5
 63
     7
421
 16777215
 74
     1
 91
        4
 64
     7
 65
   257
 75
     1
175
     1
 42
1.0
 92
        0
 66
   257
 43
1.0
 76
     1
 77
     6
 78
     2
 67
     7
 79
     5
170
     0
171
     0
290
     0
174
     0
 93
        1
 44
0.0
173
     0
291
     0
 45
0.0
  0
VISUALSTYLE
  5
32
102
{ACAD_REACTORS
330
2A
102
}
102
{ACAD_XDICTIONARY
360
3D2
102
}
330
2A
100
AcDbVisualStyle
  2
Basic
 70
     7
 71
     1
 72
     0
 73
     1
 90
        0
 40
-0.6
 41
-30.0
 62
     5
 63
     7
421
 16777215
 74
     0
 91
        4
 64
     7
 65
   257
 75
     1
175
     1
 42
1.0
 92
        8
 66
     7
 43
1.0
 76
     1
 77
     6
 78
     2
 67
     7
 79
     5
170
     0
171
     0
290
     0
174
     0
 93
        1
 44
0.0
173
     0
291
     1
 45
0.0
  0
VISUALSTYLE
  5
36
102
{ACAD_REACTORS
330
2A
102
}
102
{ACAD_XDICTIONARY
360
3DA
102
}
330
2A
100
AcDbVisualStyle
  2
Brighten
 70
    12
 71
     2
 72
     2
 73
     0
 90
        0
 40
-0.6
 41
-30.0
 62
     5
 63
     7
421
 16777215
 74
     1
 91
        4
 64
     7
 65
   257
 75
     1
175
     1
 42
1.0
 92
        8
 66
     7
 43
1.0
 76
     1
 77
     6
 78
     2
 67
     7
 79
     5
170
     0
171
     0
290
     0
174
     0
 93
        1
 44
50.0
173
     0
291
     1
 45
0.0
  0
VISUALSTYLE
  5
3A
102
{ACAD_REACTORS
330
2A
102
}
102
{ACAD_XDICTIONARY
360
3E2
102
}
330
2A
100
AcDbVisualStyle
  2
ColorChange
 70
    16
 71
     2
 72
     2
 73
     3
 90
        0
 40
-0.6
 41
-30.0
 62
     5
 63
     8
421
  8421504
 74
     1
 91
        4
 64
     7
 65
   257
 75
     1
175
     1
 42
1.0
 92
        8
 66
     8
424
  8421504
 43
1.0
 76
     1
 77
     6
 78
     2
 67
     7
 79
     5
170
     0
171
     0
290
     0
174
     0
 93
        1
 44
0.0
173
     0
291
     1
 45
0.0
  0
VISUALSTYLE
  5
34
102
{ACAD_REACTORS
330
2A
102
}
102
{ACAD_XDICTIONARY
360
3D6
102
}
330
2A
100
AcDbVisualStyle
  2
Conceptual
 70
     9
 71
     3
 72
     2
 73
     0
 90
        0
 40
-0.6
 41
-30.0
 62
     5
 63
     7
421
 16777215
 74
     2
 91
        2
 64
     7
 65
   257
 75
     1
175
     1
 42
40.0
 92
        8
 66
     7
 43
1.0
 76
     1
 77
     6
 78
     2
 67
     7
 79
     3
170
     0
171
     0
290
     0
174
     0
 93
        1
 44
0.0
173
     0
291
     0
 45
0.0
  0
VISUALSTYLE
  5
35
102
{ACAD_REACTORS
330
2A
102
}
102
{ACAD_XDICTIONARY
360
3D8
102
}
330
2A
100
AcDbVisualStyle
  2
Dim
 70
    11
 71
     2
 72
     2
 73
     0
 90
        0
 40
-0.6
 41
-30.0
 62
     5
 63
     7
421
 16777215
 74
     1
 91
        4
 64
     7
 65
   257
 75
     1
175
     1
 42
1.0
 92
        8
 66
     7
 43
1.0
 76
     1
 77
     6
 78
     2
 67
     7
 79
     5
170
     0
171
     0
290
     0
174
     0
 93
        1
 44
-50.0
173
     0
291
     1
 45
0.0
  0
VISUALSTYLE
  5
39
102
{ACAD_REACTORS
330
2A
102
}
102
{ACAD_XDICTIONARY
360
3E0
102
}
330
2A
100
AcDbVisualStyle
  2
Facepattern
 70
    15
 71
     2
 72
     2
 73
     0
 90
        0
 40
-0.6
 41
-30.0
 62
     5
 63
     7
421
 16777215
 74
     1
 91
        4
 64
     7
 65
   257
 75
     1
175
     1
 42
1.0
 92
        8
 66
     7
 43
1.0
 76
     1
 77
     6
 78
     2
 67
     7
 79
     5
170
     0
171
     0
290
     0
174
     0
 93
        1
 44
0.0
173
     0
291
     1
 45
0.0
  0
VISUALSTYLE
  5
2B
102
{ACAD_REACTORS
330
2A
102
}
102
{ACAD_XDICTIONARY
360
3C4
102
}
330
2A
100
AcDbVisualStyle
  2
Flat
 70
     0
 71
     2
 72
     1
 73
     1
 90
        2
 40
-0.6
 41
30.0
 62
     5
 63
     7
421
 16777215
 74
     0
 91
        4
 64
     7
 65
   257
 75
     1
175
     1
 42
1.0
 92
        8
 66
     7
 43
1.0
 76
     1
 77
     6
 78
     2
 67
     7
 79
     5
170
     0
171
     0
290
     0
174
     0
 93
       13
 44
0.0
173
     0
291
     1
 45
0.0
  0
VISUALSTYLE
  5
2C
102
{ACAD_REACTORS
330
2A
102
}
102
{ACAD_XDICTIONARY
360
3C6
102
}
330
2A
100
AcDbVisualStyle
  2
FlatWithEdges
 70
     1
 71
     2
 72
     1
 73
     1
 90
        2
 40
-0.6
 41
30.0
 62
     5
 63
     7
421
 16777215
 74
     1
 91
        4
 64
     7
 65
   257
 75
     1
175
     1
 42
1.0
 92
        0
 66
   257
 43
1.0
 76
     1
 77
     6
 78
     2
 67
     7
 79
     5
170
     0
171
     0
290
     0
174
     0
 93
       13
 44
0.0
173
     0
291
     1
 45
0.0
  0
VISUALSTYLE
  5
2D
102
{ACAD_REACTORS
330
2A
102
}
102
{ACAD_XDICTIONARY
360
3C8
102
}
330
2A
100
AcDbVisualStyle
  2
Gouraud
 70
     2
 71
     2
 72
     2
 73
     1
 90
        2
 40
-0.6
 41
30.0
 62
     5
 63
     7
421
 16777215
 74
     0
 91
        4
 64
     7
 65
   257
 75
     1
175
     1
 42
1.0
 92
        0
 66
     7
 43
1.0
 76
     1
 77
     6
 78
     2
 67
     7
 79
     5
170
     0
171
     0
290
     0
174
     0
 93
       13
 44
0.0
173
     0
291
     1
 45
0.0
  0
VISUALSTYLE
  5
2E
102
{ACAD_REACTORS
330
2A
102
}
102
{ACAD_XDICTIONARY
360
3CA
102
}
330
2A
100
AcDbVisualStyle
  2
GouraudWithEdges
 70
     3
 71
     2
 72
     2
 73
     1
 90
        2
 40
-0.6
 41
30.0
 62
     5
 63
     7
421
 16777215
 74
     1
 91
        4
 64
     7
 65
   257
 75
     1
175
     1
 42
1.0
 92
        0
 66
   257
 43
1.0
 76
     1
 77
     6
 78
     2
 67
     7
 79
     5
170
     0
171
     0
290
     0
174
     0
 93
       13
 44
0.0
173
     0
291
     1
 45
0.0
  0
VISUALSTYLE
  5
38
102
{ACAD_REACTORS
330
2A
102
}
102
{ACAD_XDICTIONARY
360
3DE
102
}
330
2A
100
AcDbVisualStyle
  2
Linepattern
 70
    14
 71
     2
 72
     2
 73
     0
 90
        0
 40
-0.6
 41
-30.0
 62
     5
 63
     7
421
 16777215
 74
     1
 91
        4
 64
     7
 65
   257
 75
     7
175
     7
 42
1.0
 92
        8
 66
     7
 43
1.0
 76
     1
 77
     6
 78
     2
 67
     7
 79
     5
170
     0
171
     0
290
     0
174
     0
 93
        1
 44
0.0
173
     0
291
     1
 45
0.0
  0
VISUALSTYLE
  5
33
102
{ACAD_REACTORS
330
2A
102
}
102
{ACAD_XDICTIONARY
360
3D4
102
}
330
2A
100
AcDbVisualStyle
  2
Realistic
 70
     8
 71
     2
 72
     2
 73
     0
 90
        0
 40
-0.6
 41
-30.0
 62
     5
 63
     7
421
 16777215
 74
     1
 91
        0
 64
     7
 65
   257
 75
     1
175
     1
 42
1.0
 92
        8
 66
     8
424
  7895160
 43
1.0
 76
     1
 77
     6
 78
     2
 67
     7
 79
     5
170
     0
171
     0
290
     0
174
     0
 93
       13
 44
0.0
173
     0
291
     0
 45
0.0
  0
VISUALSTYLE
  5
37
102
{ACAD_REACTORS
330
2A
102
}
102
{ACAD_XDICTIONARY
360
3DC
102
}
330
2A
100
AcDbVisualStyle
  2
Thicken
 70
    13
 71
     2
 72
     2
 73
     0
 90
        0
 40
-0.6
 41
-30.0
 62
     5
 63
     7
421
 16777215
 74
     1
 91
        4
 64
     7
 65
   257
 75
     1
175
     1
 42
1.0
 92
       12
 66
     7
 43
1.0
 76
     1
 77
     6
 78
     2
 67
     7
 79
     5
170
     0
171
     0
290
     0
174
     0
 93
        1
 44
0.0
173
     0
291
     1
 45
0.0
  0
DICTIONARY
  5
3CC
330
2F
100
AcDbDictionary
280
     1
281
     1
  3
ACAD_XREC_ROUNDTRIP
360
3CD
  0
DICTIONARY
  5
3D0
330
31
100
AcDbDictionary
280
     1
281
     1
  3
ACAD_XREC_ROUNDTRIP
360
3D1
  0
DICTIONARY
  5
3CE
330
30
100
AcDbDictionary
280
     1
281
     1
  3
ACAD_XREC_ROUNDTRIP
360
3CF
  0
DICTIONARY
  5
3D2
330
32
100
AcDbDictionary
280
     1
281
     1
  3
ACAD_XREC_ROUNDTRIP
360
3D3
  0
DICTIONARY
  5
3DA
330
36
100
AcDbDictionary
280
     1
281
     1
  3
ACAD_XREC_ROUNDTRIP
360
3DB
  0
DICTIONARY
  5
3E2
330
3A
100
AcDbDictionary
280
     1
281
     1
  3
ACAD_XREC_ROUNDTRIP
360
3E3
  0
DICTIONARY
  5
3D6
330
34
100
AcDbDictionary
280
     1
281
     1
  3
ACAD_XREC_ROUNDTRIP
360
3D7
  0
DICTIONARY
  5
3D8
330
35
100
AcDbDictionary
280
     1
281
     1
  3
ACAD_XREC_ROUNDTRIP
360
3D9
  0
DICTIONARY
  5
3E0
330
39
100
AcDbDictionary
280
     1
281
     1
  3
ACAD_XREC_ROUNDTRIP
360
3E1
  0
DICTIONARY
  5
3C4
330
2B
100
AcDbDictionary
280
     1
281
     1
  3
ACAD_XREC_ROUNDTRIP
360
3C5
  0
DICTIONARY
  5
3C6
330
2C
100
AcDbDictionary
280
     1
281
     1
  3
ACAD_XREC_ROUNDTRIP
360
3C7
  0
DICTIONARY
  5
3C8
330
2D
100
AcDbDictionary
280
     1
281
     1
  3
ACAD_XREC_ROUNDTRIP
360
3C9
  0
DICTIONARY
  5
3CA
330
2E
100
AcDbDictionary
280
     1
281
     1
  3
ACAD_XREC_ROUNDTRIP
360
3CB
  0
DICTIONARY
  5
3DE
330
38
100
AcDbDictionary
280
     1
281
     1
  3
ACAD_XREC_ROUNDTRIP
360
3DF
  0
DICTIONARY
  5
3D4
330
33
100
AcDbDictionary
280
     1
281
     1
  3
ACAD_XREC_ROUNDTRIP
360
3D5
  0
DICTIONARY
  5
3DC
330
37
100
AcDbDictionary
280
     1
281
     1
  3
ACAD_XREC_ROUNDTRIP
360
3DD
  0
XRECORD
  5
3CD
102
{ACAD_REACTORS
330
3CC
102
}
330
3CC
100
AcDbXrecord
280
     1
102
RTVSPropertyOp0
 70
     1
102
RTVSPropertyOp1
 70
     1
102
RTVSPropertyOp2
 70
     1
102
RTVSPropertyOp3
 70
     1
102
RTVSPropertyOp4
 70
     1
102
RTVSPropertyOp5
 70
     1
102
RTVSPropertyOp6
 70
     1
102
RTVSPropertyOp7
 70
     1
102
RTVSPropertyOp8
 70
     1
102
RTVSPropertyOp9
 70
     1
102
RTVSPropertyOp10
 70
     1
102
RTVSPropertyOp11
 70
     1
102
RTVSPropertyOp12
 70
     1
102
RTVSPropertyOp13
 70
     1
102
RTVSPropertyOp14
 70
     1
102
RTVSPropertyOp15
 70
     1
102
RTVSPropertyOp16
 70
     1
102
RTVSPropertyOp17
 70
     1
102
RTVSPropertyOp18
 70
     1
102
RTVSPropertyOp19
 70
     1
102
RTVSPropertyOp20
 70
     1
102
RTVSPropertyOp21
 70
     1
102
RTVSPropertyOp22
 70
     1
102
RTVSPropertyOp23
 70
     1
102
RTVSPropertyOp24
 70
     1
102
RTVSPropertyOp25
 70
     1
102
RTVSPropertyOp26
 70
     1
102
RTVSPropertyOp27
 70
     1
102
RTVSPropertyOp28
 70
     1
102
RTVSPropertyOp29
 70
     1
102
RTVSPropertyOp30
 70
     1
102
RTVSPropertyOp31
 70
     1
102
RTVSPropertyOp32
 70
     1
  0
XRECORD
  5
3D1
102
{ACAD_REACTORS
330
3D0
102
}
330
3D0
100
AcDbXrecord
280
     1
102
RTVSPropertyOp0
 70
     1
102
RTVSPropertyOp1
 70
     1
102
RTVSPropertyOp2
 70
     1
102
RTVSPropertyOp3
 70
     1
102
RTVSPropertyOp4
 70
     1
102
RTVSPropertyOp5
 70
     1
102
RTVSPropertyOp6
 70
     1
102
RTVSPropertyOp7
 70
     1
102
RTVSPropertyOp8
 70
     1
102
RTVSPropertyOp9
 70
     1
102
RTVSPropertyOp10
 70
     1
102
RTVSPropertyOp11
 70
     1
102
RTVSPropertyOp12
 70
     1
102
RTVSPropertyOp13
 70
     1
102
RTVSPropertyOp14
 70
     1
102
RTVSPropertyOp15
 70
     1
102
RTVSPropertyOp16
 70
     1
102
RTVSPropertyOp17
 70
     1
102
RTVSPropertyOp18
 70
     1
102
RTVSPropertyOp19
 70
     1
102
RTVSPropertyOp20
 70
     1
102
RTVSPropertyOp21
 70
     1
102
RTVSPropertyOp22
 70
     1
102
RTVSPropertyOp23
 70
     1
102
RTVSPropertyOp24
 70
     1
102
RTVSPropertyOp25
 70
     1
102
RTVSPropertyOp26
 70
     1
102
RTVSPropertyOp27
 70
     1
102
RTVSPropertyOp28
 70
     1
102
RTVSPropertyOp29
 70
     1
102
RTVSPropertyOp30
 70
     1
102
RTVSPropertyOp31
 70
     1
102
RTVSPropertyOp32
 70
     1
  0
XRECORD
  5
3CF
102
{ACAD_REACTORS
330
3CE
102
}
330
3CE
100
AcDbXrecord
280
     1
102
RTVSPropertyOp0
 70
     1
102
RTVSPropertyOp1
 70
     1
102
RTVSPropertyOp2
 70
     1
102
RTVSPropertyOp3
 70
     1
102
RTVSPropertyOp4
 70
     1
102
RTVSPropertyOp5
 70
     1
102
RTVSPropertyOp6
 70
     1
102
RTVSPropertyOp7
 70
     1
102
RTVSPropertyOp8
 70
     1
102
RTVSPropertyOp9
 70
     1
102
RTVSPropertyOp10
 70
     1
102
RTVSPropertyOp11
 70
     1
102
RTVSPropertyOp12
 70
     1
102
RTVSPropertyOp13
 70
     1
102
RTVSPropertyOp14
 70
     1
102
RTVSPropertyOp15
 70
     1
102
RTVSPropertyOp16
 70
     1
102
RTVSPropertyOp17
 70
     1
102
RTVSPropertyOp18
 70
     1
102
RTVSPropertyOp19
 70
     1
102
RTVSPropertyOp20
 70
     1
102
RTVSPropertyOp21
 70
     1
102
RTVSPropertyOp22
 70
     1
102
RTVSPropertyOp23
 70
     1
102
RTVSPropertyOp24
 70
     1
102
RTVSPropertyOp25
 70
     1
102
RTVSPropertyOp26
 70
     1
102
RTVSPropertyOp27
 70
     1
102
RTVSPropertyOp28
 70
     1
102
RTVSPropertyOp29
 70
     1
102
RTVSPropertyOp30
 70
     1
102
RTVSPropertyOp31
 70
     1
102
RTVSPropertyOp32
 70
     1
  0
XRECORD
  5
3D3
102
{ACAD_REACTORS
330
3D2
102
}
330
3D2
100
AcDbXrecord
280
     1
102
RTVSPropertyOp0
 70
     1
102
RTVSPropertyOp1
 70
     1
102
RTVSPropertyOp2
 70
     1
102
RTVSPropertyOp3
 70
     1
102
RTVSPropertyOp4
 70
     1
102
RTVSPropertyOp5
 70
     1
102
RTVSPropertyOp6
 70
     1
102
RTVSPropertyOp7
 70
     1
102
RTVSPropertyOp8
 70
     1
102
RTVSPropertyOp9
 70
     1
102
RTVSPropertyOp10
 70
     1
102
RTVSPropertyOp11
 70
     1
102
RTVSPropertyOp12
 70
     1
102
RTVSPropertyOp13
 70
     1
102
RTVSPropertyOp14
 70
     1
102
RTVSPropertyOp15
 70
     1
102
RTVSPropertyOp16
 70
     1
102
RTVSPropertyOp17
 70
     1
102
RTVSPropertyOp18
 70
     1
102
RTVSPropertyOp19
 70
     1
102
RTVSPropertyOp20
 70
     1
102
RTVSPropertyOp21
 70
     1
102
RTVSPropertyOp22
 70
     1
102
RTVSPropertyOp23
 70
     1
102
RTVSPropertyOp24
 70
     1
102
RTVSPropertyOp25
 70
     1
102
RTVSPropertyOp26
 70
     1
102
RTVSPropertyOp27
 70
     1
102
RTVSPropertyOp28
 70
     1
102
RTVSPropertyOp29
 70
     1
102
RTVSPropertyOp30
 70
     1
102
RTVSPropertyOp31
 70
     1
102
RTVSPropertyOp32
 70
     1
  0
XRECORD
  5
3DB
102
{ACAD_REACTORS
330
3DA
102
}
330
3DA
100
AcDbXrecord
280
     1
102
RTVSPropertyOp0
 70
     1
102
RTVSPropertyOp1
 70
     1
102
RTVSPropertyOp2
 70
     1
102
RTVSPropertyOp3
 70
     1
102
RTVSPropertyOp4
 70
     1
102
RTVSPropertyOp5
 70
     1
102
RTVSPropertyOp6
 70
     1
102
RTVSPropertyOp7
 70
     1
102
RTVSPropertyOp8
 70
     1
102
RTVSPropertyOp9
 70
     1
102
RTVSPropertyOp10
 70
     1
102
RTVSPropertyOp11
 70
     1
102
RTVSPropertyOp12
 70
     1
102
RTVSPropertyOp13
 70
     1
102
RTVSPropertyOp14
 70
     1
102
RTVSPropertyOp15
 70
     1
102
RTVSPropertyOp16
 70
     1
102
RTVSPropertyOp17
 70
     1
102
RTVSPropertyOp18
 70
     1
102
RTVSPropertyOp19
 70
     1
102
RTVSPropertyOp20
 70
     1
102
RTVSPropertyOp21
 70
     1
102
RTVSPropertyOp22
 70
     1
102
RTVSPropertyOp23
 70
     1
102
RTVSPropertyOp24
 70
     1
102
RTVSPropertyOp25
 70
     1
102
RTVSPropertyOp26
 70
     1
102
RTVSPropertyOp27
 70
     1
102
RTVSPropertyOp28
 70
     1
102
RTVSPropertyOp29
 70
     1
102
RTVSPropertyOp30
 70
     1
102
RTVSPropertyOp31
 70
     1
102
RTVSPropertyOp32
 70
     1
  0
XRECORD
  5
3E3
102
{ACAD_REACTORS
330
3E2
102
}
330
3E2
100
AcDbXrecord
280
     1
102
RTVSPropertyOp0
 70
     1
102
RTVSPropertyOp1
 70
     1
102
RTVSPropertyOp2
 70
     1
102
RTVSPropertyOp3
 70
     1
102
RTVSPropertyOp4
 70
     1
102
RTVSPropertyOp5
 70
     1
102
RTVSPropertyOp6
 70
     1
102
RTVSPropertyOp7
 70
     1
102
RTVSPropertyOp8
 70
     1
102
RTVSPropertyOp9
 70
     1
102
RTVSPropertyOp10
 70
     1
102
RTVSPropertyOp11
 70
     1
102
RTVSPropertyOp12
 70
     1
102
RTVSPropertyOp13
 70
     1
102
RTVSPropertyOp14
 70
     1
102
RTVSPropertyOp15
 70
     1
102
RTVSPropertyOp16
 70
     1
102
RTVSPropertyOp17
 70
     1
102
RTVSPropertyOp18
 70
     1
102
RTVSPropertyOp19
 70
     1
102
RTVSPropertyOp20
 70
     1
102
RTVSPropertyOp21
 70
     1
102
RTVSPropertyOp22
 70
     1
102
RTVSPropertyOp23
 70
     1
102
RTVSPropertyOp24
 70
     1
102
RTVSPropertyOp25
 70
     1
102
RTVSPropertyOp26
 70
     1
102
RTVSPropertyOp27
 70
     1
102
RTVSPropertyOp28
 70
     1
102
RTVSPropertyOp29
 70
     1
102
RTVSPropertyOp30
 70
     1
102
RTVSPropertyOp31
 70
     1
102
RTVSPropertyOp32
 70
     1
  0
XRECORD
  5
3D7
102
{ACAD_REACTORS
330
3D6
102
}
330
3D6
100
AcDbXrecord
280
     1
102
RTVSPropertyOp0
 70
     1
102
RTVSPropertyOp1
 70
     1
102
RTVSPropertyOp2
 70
     1
102
RTVSPropertyOp3
 70
     1
102
RTVSPropertyOp4
 70
     1
102
RTVSPropertyOp5
 70
     1
102
RTVSPropertyOp6
 70
     1
102
RTVSPropertyOp7
 70
     1
102
RTVSPropertyOp8
 70
     1
102
RTVSPropertyOp9
 70
     1
102
RTVSPropertyOp10
 70
     1
102
RTVSPropertyOp11
 70
     1
102
RTVSPropertyOp12
 70
     1
102
RTVSPropertyOp13
 70
     1
102
RTVSPropertyOp14
 70
     1
102
RTVSPropertyOp15
 70
     1
102
RTVSPropertyOp16
 70
     1
102
RTVSPropertyOp17
 70
     1
102
RTVSPropertyOp18
 70
     1
102
RTVSPropertyOp19
 70
     1
102
RTVSPropertyOp20
 70
     1
102
RTVSPropertyOp21
 70
     1
102
RTVSPropertyOp22
 70
     1
102
RTVSPropertyOp23
 70
     1
102
RTVSPropertyOp24
 70
     1
102
RTVSPropertyOp25
 70
     1
102
RTVSPropertyOp26
 70
     1
102
RTVSPropertyOp27
 70
     1
102
RTVSPropertyOp28
 70
     1
102
RTVSPropertyOp29
 70
     1
102
RTVSPropertyOp30
 70
     1
102
RTVSPropertyOp31
 70
     1
102
RTVSPropertyOp32
 70
     1
  0
XRECORD
  5
3D9
102
{ACAD_REACTORS
330
3D8
102
}
330
3D8
100
AcDbXrecord
280
     1
102
RTVSPropertyOp0
 70
     1
102
RTVSPropertyOp1
 70
     1
102
RTVSPropertyOp2
 70
     1
102
RTVSPropertyOp3
 70
     1
102
RTVSPropertyOp4
 70
     1
102
RTVSPropertyOp5
 70
     1
102
RTVSPropertyOp6
 70
     1
102
RTVSPropertyOp7
 70
     1
102
RTVSPropertyOp8
 70
     1
102
RTVSPropertyOp9
 70
     1
102
RTVSPropertyOp10
 70
     1
102
RTVSPropertyOp11
 70
     1
102
RTVSPropertyOp12
 70
     1
102
RTVSPropertyOp13
 70
     1
102
RTVSPropertyOp14
 70
     1
102
RTVSPropertyOp15
 70
     1
102
RTVSPropertyOp16
 70
     1
102
RTVSPropertyOp17
 70
     1
102
RTVSPropertyOp18
 70
     1
102
RTVSPropertyOp19
 70
     1
102
RTVSPropertyOp20
 70
     1
102
RTVSPropertyOp21
 70
     1
102
RTVSPropertyOp22
 70
     1
102
RTVSPropertyOp23
 70
     1
102
RTVSPropertyOp24
 70
     1
102
RTVSPropertyOp25
 70
     1
102
RTVSPropertyOp26
 70
     1
102
RTVSPropertyOp27
 70
     1
102
RTVSPropertyOp28
 70
     1
102
RTVSPropertyOp29
 70
     1
102
RTVSPropertyOp30
 70
     1
102
RTVSPropertyOp31
 70
     1
102
RTVSPropertyOp32
 70
     1
  0
XRECORD
  5
3E1
102
{ACAD_REACTORS
330
3E0
102
}
330
3E0
100
AcDbXrecord
280
     1
102
RTVSPropertyOp0
 70
     1
102
RTVSPropertyOp1
 70
     1
102
RTVSPropertyOp2
 70
     1
102
RTVSPropertyOp3
 70
     1
102
RTVSPropertyOp4
 70
     1
102
RTVSPropertyOp5
 70
     1
102
RTVSPropertyOp6
 70
     1
102
RTVSPropertyOp7
 70
     1
102
RTVSPropertyOp8
 70
     1
102
RTVSPropertyOp9
 70
     1
102
RTVSPropertyOp10
 70
     1
102
RTVSPropertyOp11
 70
     1
102
RTVSPropertyOp12
 70
     1
102
RTVSPropertyOp13
 70
     1
102
RTVSPropertyOp14
 70
     1
102
RTVSPropertyOp15
 70
     1
102
RTVSPropertyOp16
 70
     1
102
RTVSPropertyOp17
 70
     1
102
RTVSPropertyOp18
 70
     1
102
RTVSPropertyOp19
 70
     1
102
RTVSPropertyOp20
 70
     1
102
RTVSPropertyOp21
 70
     1
102
RTVSPropertyOp22
 70
     1
102
RTVSPropertyOp23
 70
     1
102
RTVSPropertyOp24
 70
     1
102
RTVSPropertyOp25
 70
     1
102
RTVSPropertyOp26
 70
     1
102
RTVSPropertyOp27
 70
     1
102
RTVSPropertyOp28
 70
     1
102
RTVSPropertyOp29
 70
     1
102
RTVSPropertyOp30
 70
     1
102
RTVSPropertyOp31
 70
     1
102
RTVSPropertyOp32
 70
     1
  0
XRECORD
  5
3C5
102
{ACAD_REACTORS
330
3C4
102
}
330
3C4
100
AcDbXrecord
280
     1
102
RTVSPropertyOp0
 70
     1
102
RTVSPropertyOp1
 70
     1
102
RTVSPropertyOp2
 70
     1
102
RTVSPropertyOp3
 70
     1
102
RTVSPropertyOp4
 70
     1
102
RTVSPropertyOp5
 70
     1
102
RTVSPropertyOp6
 70
     1
102
RTVSPropertyOp7
 70
     1
102
RTVSPropertyOp8
 70
     1
102
RTVSPropertyOp9
 70
     1
102
RTVSPropertyOp10
 70
     1
102
RTVSPropertyOp11
 70
     1
102
RTVSPropertyOp12
 70
     1
102
RTVSPropertyOp13
 70
     1
102
RTVSPropertyOp14
 70
     1
102
RTVSPropertyOp15
 70
     1
102
RTVSPropertyOp16
 70
     1
102
RTVSPropertyOp17
 70
     1
102
RTVSPropertyOp18
 70
     1
102
RTVSPropertyOp19
 70
     1
102
RTVSPropertyOp20
 70
     1
102
RTVSPropertyOp21
 70
     1
102
RTVSPropertyOp22
 70
     1
102
RTVSPropertyOp23
 70
     1
102
RTVSPropertyOp24
 70
     1
102
RTVSPropertyOp25
 70
     1
102
RTVSPropertyOp26
 70
     1
102
RTVSPropertyOp27
 70
     1
102
RTVSPropertyOp28
 70
     1
102
RTVSPropertyOp29
 70
     1
102
RTVSPropertyOp30
 70
     1
102
RTVSPropertyOp31
 70
     1
102
RTVSPropertyOp32
 70
     1
  0
XRECORD
  5
3C7
102
{ACAD_REACTORS
330
3C6
102
}
330
3C6
100
AcDbXrecord
280
     1
102
RTVSPropertyOp0
 70
     1
102
RTVSPropertyOp1
 70
     1
102
RTVSPropertyOp2
 70
     1
102
RTVSPropertyOp3
 70
     1
102
RTVSPropertyOp4
 70
     1
102
RTVSPropertyOp5
 70
     1
102
RTVSPropertyOp6
 70
     1
102
RTVSPropertyOp7
 70
     1
102
RTVSPropertyOp8
 70
     1
102
RTVSPropertyOp9
 70
     1
102
RTVSPropertyOp10
 70
     1
102
RTVSPropertyOp11
 70
     1
102
RTVSPropertyOp12
 70
     1
102
RTVSPropertyOp13
 70
     1
102
RTVSPropertyOp14
 70
     1
102
RTVSPropertyOp15
 70
     1
102
RTVSPropertyOp16
 70
     1
102
RTVSPropertyOp17
 70
     1
102
RTVSPropertyOp18
 70
     1
102
RTVSPropertyOp19
 70
     1
102
RTVSPropertyOp20
 70
     1
102
RTVSPropertyOp21
 70
     1
102
RTVSPropertyOp22
 70
     1
102
RTVSPropertyOp23
 70
     1
102
RTVSPropertyOp24
 70
     1
102
RTVSPropertyOp25
 70
     1
102
RTVSPropertyOp26
 70
     1
102
RTVSPropertyOp27
 70
     1
102
RTVSPropertyOp28
 70
     1
102
RTVSPropertyOp29
 70
     1
102
RTVSPropertyOp30
 70
     1
102
RTVSPropertyOp31
 70
     1
102
RTVSPropertyOp32
 70
     1
  0
XRECORD
  5
3C9
102
{ACAD_REACTORS
330
3C8
102
}
330
3C8
100
AcDbXrecord
280
     1
102
RTVSPropertyOp0
 70
     1
102
RTVSPropertyOp1
 70
     1
102
RTVSPropertyOp2
 70
     1
102
RTVSPropertyOp3
 70
     1
102
RTVSPropertyOp4
 70
     1
102
RTVSPropertyOp5
 70
     1
102
RTVSPropertyOp6
 70
     1
102
RTVSPropertyOp7
 70
     1
102
RTVSPropertyOp8
 70
     1
102
RTVSPropertyOp9
 70
     1
102
RTVSPropertyOp10
 70
     1
102
RTVSPropertyOp11
 70
     1
102
RTVSPropertyOp12
 70
     1
102
RTVSPropertyOp13
 70
     1
102
RTVSPropertyOp14
 70
     1
102
RTVSPropertyOp15
 70
     1
102
RTVSPropertyOp16
 70
     1
102
RTVSPropertyOp17
 70
     1
102
RTVSPropertyOp18
 70
     1
102
RTVSPropertyOp19
 70
     1
102
RTVSPropertyOp20
 70
     1
102
RTVSPropertyOp21
 70
     1
102
RTVSPropertyOp22
 70
     1
102
RTVSPropertyOp23
 70
     1
102
RTVSPropertyOp24
 70
     1
102
RTVSPropertyOp25
 70
     1
102
RTVSPropertyOp26
 70
     1
102
RTVSPropertyOp27
 70
     1
102
RTVSPropertyOp28
 70
     1
102
RTVSPropertyOp29
 70
     1
102
RTVSPropertyOp30
 70
     1
102
RTVSPropertyOp31
 70
     1
102
RTVSPropertyOp32
 70
     1
  0
XRECORD
  5
3CB
102
{ACAD_REACTORS
330
3CA
102
}
330
3CA
100
AcDbXrecord
280
     1
102
RTVSPropertyOp0
 70
     1
102
RTVSPropertyOp1
 70
     1
102
RTVSPropertyOp2
 70
     1
102
RTVSPropertyOp3
 70
     1
102
RTVSPropertyOp4
 70
     1
102
RTVSPropertyOp5
 70
     1
102
RTVSPropertyOp6
 70
     1
102
RTVSPropertyOp7
 70
     1
102
RTVSPropertyOp8
 70
     1
102
RTVSPropertyOp9
 70
     1
102
RTVSPropertyOp10
 70
     1
102
RTVSPropertyOp11
 70
     1
102
RTVSPropertyOp12
 70
     1
102
RTVSPropertyOp13
 70
     1
102
RTVSPropertyOp14
 70
     1
102
RTVSPropertyOp15
 70
     1
102
RTVSPropertyOp16
 70
     1
102
RTVSPropertyOp17
 70
     1
102
RTVSPropertyOp18
 70
     1
102
RTVSPropertyOp19
 70
     1
102
RTVSPropertyOp20
 70
     1
102
RTVSPropertyOp21
 70
     1
102
RTVSPropertyOp22
 70
     1
102
RTVSPropertyOp23
 70
     1
102
RTVSPropertyOp24
 70
     1
102
RTVSPropertyOp25
 70
     1
102
RTVSPropertyOp26
 70
     1
102
RTVSPropertyOp27
 70
     1
102
RTVSPropertyOp28
 70
     1
102
RTVSPropertyOp29
 70
     1
102
RTVSPropertyOp30
 70
     1
102
RTVSPropertyOp31
 70
     1
102
RTVSPropertyOp32
 70
     1
  0
XRECORD
  5
3DF
102
{ACAD_REACTORS
330
3DE
102
}
330
3DE
100
AcDbXrecord
280
     1
102
RTVSPropertyOp0
 70
     1
102
RTVSPropertyOp1
 70
     1
102
RTVSPropertyOp2
 70
     1
102
RTVSPropertyOp3
 70
     1
102
RTVSPropertyOp4
 70
     1
102
RTVSPropertyOp5
 70
     1
102
RTVSPropertyOp6
 70
     1
102
RTVSPropertyOp7
 70
     1
102
RTVSPropertyOp8
 70
     1
102
RTVSPropertyOp9
 70
     1
102
RTVSPropertyOp10
 70
     1
102
RTVSPropertyOp11
 70
     1
102
RTVSPropertyOp12
 70
     1
102
RTVSPropertyOp13
 70
     1
102
RTVSPropertyOp14
 70
     1
102
RTVSPropertyOp15
 70
     1
102
RTVSPropertyOp16
 70
     1
102
RTVSPropertyOp17
 70
     1
102
RTVSPropertyOp18
 70
     1
102
RTVSPropertyOp19
 70
     1
102
RTVSPropertyOp20
 70
     1
102
RTVSPropertyOp21
 70
     1
102
RTVSPropertyOp22
 70
     1
102
RTVSPropertyOp23
 70
     1
102
RTVSPropertyOp24
 70
     1
102
RTVSPropertyOp25
 70
     1
102
RTVSPropertyOp26
 70
     1
102
RTVSPropertyOp27
 70
     1
102
RTVSPropertyOp28
 70
     1
102
RTVSPropertyOp29
 70
     1
102
RTVSPropertyOp30
 70
     1
102
RTVSPropertyOp31
 70
     1
102
RTVSPropertyOp32
 70
     1
  0
XRECORD
  5
3D5
102
{ACAD_REACTORS
330
3D4
102
}
330
3D4
100
AcDbXrecord
280
     1
102
RTVSPropertyOp0
 70
     1
102
RTVSPropertyOp1
 70
     1
102
RTVSPropertyOp2
 70
     1
102
RTVSPropertyOp3
 70
     1
102
RTVSPropertyOp4
 70
     1
102
RTVSPropertyOp5
 70
     1
102
RTVSPropertyOp6
 70
     1
102
RTVSPropertyOp7
 70
     1
102
RTVSPropertyOp8
 70
     1
102
RTVSPropertyOp9
 70
     1
102
RTVSPropertyOp10
 70
     1
102
RTVSPropertyOp11
 70
     1
102
RTVSPropertyOp12
 70
     1
102
RTVSPropertyOp13
 70
     1
102
RTVSPropertyOp14
 70
     1
102
RTVSPropertyOp15
 70
     1
102
RTVSPropertyOp16
 70
     1
102
RTVSPropertyOp17
 70
     1
102
RTVSPropertyOp18
 70
     1
102
RTVSPropertyOp19
 70
     1
102
RTVSPropertyOp20
 70
     1
102
RTVSPropertyOp21
 70
     1
102
RTVSPropertyOp22
 70
     1
102
RTVSPropertyOp23
 70
     1
102
RTVSPropertyOp24
 70
     1
102
RTVSPropertyOp25
 70
     1
102
RTVSPropertyOp26
 70
     1
102
RTVSPropertyOp27
 70
     1
102
RTVSPropertyOp28
 70
     1
102
RTVSPropertyOp29
 70
     1
102
RTVSPropertyOp30
 70
     1
102
RTVSPropertyOp31
 70
     1
102
RTVSPropertyOp32
 70
     1
  0
XRECORD
  5
3DD
102
{ACAD_REACTORS
330
3DC
102
}
330
3DC
100
AcDbXrecord
280
     1
102
RTVSPropertyOp0
 70
     1
102
RTVSPropertyOp1
 70
     1
102
RTVSPropertyOp2
 70
     1
102
RTVSPropertyOp3
 70
     1
102
RTVSPropertyOp4
 70
     1
102
RTVSPropertyOp5
 70
     1
102
RTVSPropertyOp6
 70
     1
102
RTVSPropertyOp7
 70
     1
102
RTVSPropertyOp8
 70
     1
102
RTVSPropertyOp9
 70
     1
102
RTVSPropertyOp10
 70
     1
102
RTVSPropertyOp11
 70
     1
102
RTVSPropertyOp12
 70
     1
102
RTVSPropertyOp13
 70
     1
102
RTVSPropertyOp14
 70
     1
102
RTVSPropertyOp15
 70
     1
102
RTVSPropertyOp16
 70
     1
102
RTVSPropertyOp17
 70
     1
102
RTVSPropertyOp18
 70
     1
102
RTVSPropertyOp19
 70
     1
102
RTVSPropertyOp20
 70
     1
102
RTVSPropertyOp21
 70
     1
102
RTVSPropertyOp22
 70
     1
102
RTVSPropertyOp23
 70
     1
102
RTVSPropertyOp24
 70
     1
102
RTVSPropertyOp25
 70
     1
102
RTVSPropertyOp26
 70
     1
102
RTVSPropertyOp27
 70
     1
102
RTVSPropertyOp28
 70
     1
102
RTVSPropertyOp29
 70
     1
102
RTVSPropertyOp30
 70
     1
102
RTVSPropertyOp31
 70
     1
102
RTVSPropertyOp32
 70
     1
  0
ENDSEC
  0
EOF
