  0
SECTION
  2
HEADER
  9
$ACADVER
  1
AC1021
  9
$ACADMAINTVER
 70
    25
  9
$DWGCODEPAGE
  3
ANSI_932
  9
$INSBASE
 10
0.0
 20
0.0
 30
0.0
  9
$EXTMIN
 10
34.00622083981338
 20
39.76116460478656
 30
0.0
  9
$EXTMAX
 10
1036.102427855538
 20
612.9043545878694
 30
0.0
  9
$LIMMIN
 10
0.0
 20
0.0
  9
$LIMMAX
 10
1189.0
 20
841.0
  9
$ORTHOMODE
 70
     0
  9
$REGENMODE
 70
     1
  9
$FILLMODE
 70
     1
  9
$QTEXTMODE
 70
     0
  9
$MIRRTEXT
 70
     1
  9
$LTSCALE
 40
0.25
  9
$ATTMODE
 70
     1
  9
$TEXTSIZE
 40
5.0
  9
$TRACEWID
 40
0.05
  9
$TEXTSTYLE
  7
Standard
  9
$CLAYER
  8
0
  9
$CELTYPE
  6
ByLayer
  9
$CECOLOR
 62
   256
  9
$CELTSCALE
 40
1.0
  9
$DISPSILH
 70
     0
  9
$DIMSCALE
 40
1.0
  9
$DIMASZ
 40
2.0
  9
$DIMEXO
 40
2.0
  9
$DIMDLI
 40
10.0
  9
$DIMRND
 40
0.0
  9
$DIMDLE
 40
0.0
  9
$DIMEXE
 40
1.5
  9
$DIMTP
 40
0.0
  9
$DIMTM
 40
0.0
  9
$DIMTXT
 40
4.0
  9
$DIMCEN
 40
0.09
  9
$DIMTSZ
 40
0.0
  9
$DIMTOL
 70
     0
  9
$DIMLIM
 70
     0
  9
$DIMTIH
 70
     0
  9
$DIMTOH
 70
     0
  9
$DIMSE1
 70
     0
  9
$DIMSE2
 70
     0
  9
$DIMTAD
 70
     3
  9
$DIMZIN
 70
     8
  9
$DIMBLK
  1

  9
$DIMASO
 70
     1
  9
$DIMSHO
 70
     1
  9
$DIMPOST
  1

  9
$DIMAPOST
  1

  9
$DIMALT
 70
     0
  9
$DIMALTD
 70
     2
  9
$DIMALTF
 40
25.4
  9
$DIMLFAC
 40
1.0
  9
$DIMTOFL
 70
     1
  9
$DIMTVP
 40
0.7
  9
$DIMTIX
 70
     0
  9
$DIMSOXD
 70
     0
  9
$DIMSAH
 70
     0
  9
$DIMBLK1
  1

  9
$DIMBLK2
  1

  9
$DIMSTYLE
  2
Standard
  9
$DIMCLRD
 70
     0
  9
$DIMCLRE
 70
     0
  9
$DIMCLRT
 70
     0
  9
$DIMTFAC
 40
0.5
  9
$DIMGAP
 40
0.09
  9
$DIMJUST
 70
     0
  9
$DIMSD1
 70
     0
  9
$DIMSD2
 70
     0
  9
$DIMTOLJ
 70
     1
  9
$DIMTZIN
 70
     8
  9
$DIMALTZ
 70
     0
  9
$DIMALTTZ
 70
     0
  9
$DIMUPT
 70
     1
  9
$DIMDEC
 70
     2
  9
$DIMTDEC
 70
     4
  9
$DIMALTU
 70
     2
  9
$DIMALTTD
 70
     2
  9
$DIMTXSTY
  7
Standard
  9
$DIMAUNIT
 70
     0
  9
$DIMADEC
 70
     0
  9
$DIMALTRND
 40
0.0
  9
$DIMAZIN
 70
     0
  9
$DIMDSEP
 70
    46
  9
$DIMATFIT
 70
     2
  9
$DIMFRAC
 70
     0
  9
$DIMLDRBLK
  1

  9
$DIMLUNIT
 70
     2
  9
$DIMLWD
 70
    -2
  9
$DIMLWE
 70
    -2
  9
$DIMTMOVE
 70
     2
  9
$DIMFXL
 40
1.0
  9
$DIMFXLON
 70
     0
  9
$DIMJOGANG
 40
0.7853981633974483
  9
$DIMTFILL
 70
     0
  9
$DIMTFILLCLR
 70
     0
  9
$DIMARCSYM
 70
     0
  9
$DIMLTYPE
  6

  9
$DIMLTEX1
  6

  9
$DIMLTEX2
  6

  9
$LUNITS
 70
     2
  9
$LUPREC
 70
     4
  9
$SKETCHINC
 40
0.1
  9
$FILLETRAD
 40
0.5
  9
$AUNITS
 70
     0
  9
$AUPREC
 70
     0
  9
$MENU
  1
.
  9
$ELEVATION
 40
0.0
  9
$PELEVATION
 40
0.0
  9
$THICKNESS
 40
0.0
  9
$LIMCHECK
 70
     0
  9
$CHAMFERA
 40
0.5
  9
$CHAMFERB
 40
0.5
  9
$CHAMFERC
 40
1.0
  9
$CHAMFERD
 40
0.0
  9
$SKPOLY
 70
     0
  9
$TDCREATE
 40
2456992.004652778
  9
$TDUCREATE
 40
2456991.629652778
  9
$TDUPDATE
 40
2456991.629663229
  9
$TDUUPDATE
 40
2456991.254663229
  9
$TDINDWG
 40
0.0000000116
  9
$TDUSRTIMER
 40
0.0000000116
  9
$USRTIMER
 70
     1
  9
$ANGBASE
 50
0.0
  9
$ANGDIR
 70
     0
  9
$PDMODE
 70
     0
  9
$PDSIZE
 40
0.0
  9
$PLINEWID
 40
0.0
  9
$SPLFRAME
 70
     0
  9
$SPLINETYPE
 70
     6
  9
$SPLINESEGS
 70
     8
  9
$HANDSEED
  5
481
  9
$SURFTAB1
 70
     6
  9
$SURFTAB2
 70
     6
  9
$SURFTYPE
 70
     6
  9
$SURFU
 70
     6
  9
$SURFV
 70
     6
  9
$UCSBASE
  2

  9
$UCSNAME
  2

  9
$UCSORG
 10
0.0
 20
0.0
 30
0.0
  9
$UCSXDIR
 10
1.0
 20
0.0
 30
0.0
  9
$UCSYDIR
 10
0.0
 20
1.0
 30
0.0
  9
$UCSORTHOREF
  2

  9
$UCSORTHOVIEW
 70
     0
  9
$UCSORGTOP
 10
0.0
 20
0.0
 30
0.0
  9
$UCSORGBOTTOM
 10
0.0
 20
0.0
 30
0.0
  9
$UCSORGLEFT
 10
0.0
 20
0.0
 30
0.0
  9
$UCSORGRIGHT
 10
0.0
 20
0.0
 30
0.0
  9
$UCSORGFRONT
 10
0.0
 20
0.0
 30
0.0
  9
$UCSORGBACK
 10
0.0
 20
0.0
 30
0.0
  9
$PUCSBASE
  2

  9
$PUCSNAME
  2

  9
$PUCSORG
 10
0.0
 20
0.0
 30
0.0
  9
$PUCSXDIR
 10
1.0
 20
0.0
 30
0.0
  9
$PUCSYDIR
 10
0.0
 20
1.0
 30
0.0
  9
$PUCSORTHOREF
  2

  9
$PUCSORTHOVIEW
 70
     0
  9
$PUCSORGTOP
 10
0.0
 20
0.0
 30
0.0
  9
$PUCSORGBOTTOM
 10
0.0
 20
0.0
 30
0.0
  9
$PUCSORGLEFT
 10
0.0
 20
0.0
 30
0.0
  9
$PUCSORGRIGHT
 10
0.0
 20
0.0
 30
0.0
  9
$PUCSORGFRONT
 10
0.0
 20
0.0
 30
0.0
  9
$PUCSORGBACK
 10
0.0
 20
0.0
 30
0.0
  9
$USERI1
 70
     0
  9
$USERI2
 70
     0
  9
$USERI3
 70
     0
  9
$USERI4
 70
     0
  9
$USERI5
 70
     0
  9
$USERR1
 40
0.0
  9
$USERR2
 40
0.0
  9
$USERR3
 40
0.0
  9
$USERR4
 40
0.0
  9
$USERR5
 40
0.0
  9
$WORLDVIEW
 70
     1
  9
$SHADEDGE
 70
     3
  9
$SHADEDIF
 70
    70
  9
$TILEMODE
 70
     1
  9
$MAXACTVP
 70
    64
  9
$PINSBASE
 10
0.0
 20
0.0
 30
0.0
  9
$PLIMCHECK
 70
     0
  9
$PEXTMIN
 10
0.0
 20
0.0
 30
0.0
  9
$PEXTMAX
 10
1189.0
 20
841.0
 30
0.0
  9
$PLIMMIN
 10
0.0
 20
0.0
  9
$PLIMMAX
 10
1189.0
 20
841.0
  9
$UNITMODE
 70
     0
  9
$VISRETAIN
 70
     1
  9
$PLINEGEN
 70
     0
  9
$PSLTSCALE
 70
     1
  9
$TREEDEPTH
 70
  3020
  9
$CMLSTYLE
  2
Standard
  9
$CMLJUST
 70
     0
  9
$CMLSCALE
 40
1.0
  9
$PROXYGRAPHICS
 70
     1
  9
$MEASUREMENT
 70
     1
  9
$CELWEIGHT
370
    -1
  9
$ENDCAPS
280
     0
  9
$JOINSTYLE
280
     0
  9
$LWDISPLAY
290
     0
  9
$INSUNITS
 70
     4
  9
$HYPERLINKBASE
  1

  9
$STYLESHEET
  1

  9
$XEDIT
290
     1
  9
$CEPSNTYPE
380
     0
  9
$PSTYLEMODE
290
     1
  9
$FINGERPRINTGUID
  2
{43A6FB67-2CBA-42BC-9CC5-8E22617C717F}
  9
$VERSIONGUID
  2
{FAEB1C32-E019-11D5-929B-00C0DF256EC4}
  9
$EXTNAMES
290
     1
  9
$PSVPSCALE
 40
0.0
  9
$OLESTARTUP
290
     0
  9
$SORTENTS
280
   127
  9
$INDEXCTL
280
     0
  9
$HIDETEXT
280
     1
  9
$XCLIPFRAME
290
     0
  9
$HALOGAP
280
     0
  9
$OBSCOLOR
 70
   257
  9
$OBSLTYPE
280
     0
  9
$INTERSECTIONDISPLAY
280
     0
  9
$INTERSECTIONCOLOR
 70
   257
  9
$DIMASSOC
280
     1
  9
$PROJECTNAME
  1

  9
$CAMERADISPLAY
290
     0
  9
$LENSLENGTH
 40
50.0
  9
$CAMERAHEIGHT
 40
0.0
  9
$STEPSPERSEC
 40
2.0
  9
$STEPSIZE
 40
6.0
  9
$3DDWFPREC
 40
2.0
  9
$PSOLWIDTH
 40
0.25
  9
$PSOLHEIGHT
 40
4.0
  9
$LOFTANG1
 40
1.570796326794897
  9
$LOFTANG2
 40
1.570796326794897
  9
$LOFTMAG1
 40
0.0
  9
$LOFTMAG2
 40
0.0
  9
$LOFTPARAM
 70
     7
  9
$LOFTNORMALS
280
     1
  9
$LATITUDE
 40
37.795
  9
$LONGITUDE
 40
-122.394
  9
$NORTHDIRECTION
 40
0.0
  9
$TIMEZONE
 70
 -8000
  9
$LIGHTGLYPHDISPLAY
280
     1
  9
$TILEMODELIGHTSYNCH
280
     1
  9
$SOLIDHIST
280
     1
  9
$SHOWHIST
280
     1
  9
$DWFFRAME
280
     2
  9
$DGNFRAME
280
     2
  9
$REALWORLDSCALE
290
     1
  9
$INTERFERECOLOR
 62
   256
  9
$CSHADOW
280
     0
  9
$SHADOWPLANELOCATION
 40
0.0
  0
ENDSEC
  0
SECTION
  2
CLASSES
  0
CLASS
  1
ACDBDICTIONARYWDFLT
  2
AcDbDictionaryWithDefault
  3
ObjectDBX Classes
 90
        0
 91
        4
280
     0
281
     0
  0
CLASS
  1
VISUALSTYLE
  2
AcDbVisualStyle
  3
ObjectDBX Classes
 90
     4095
 91
        4
280
     0
281
     0
  0
CLASS
  1
MATERIAL
  2
AcDbMaterial
  3
ObjectDBX Classes
 90
     1153
 91
        4
280
     0
281
     0
  0
ENDSEC
  0
SECTION
  2
TABLES
  0
TABLE
  2
VPORT
  5
8
330
0
100
AcDbSymbolTable
 70
     1
  0
VPORT
  5
29
330
8
100
AcDbSymbolTableRecord
100
AcDbViewportTableRecord
  2
*Active
 70
     0
 10
0.0
 20
0.0
 11
1.0
 21
1.0
 12
10.42990654205607
 22
4.5
 13
0.0
 23
0.0
 14
0.5
 24
0.5
 15
0.5
 25
0.5
 16
0.0
 26
0.0
 36
1.0
 17
0.0
 27
0.0
 37
0.0
 40
9.0
 41
1.972972972850329
 42
50.0
 43
0.0
 44
0.0
 50
0.0
 51
0.0
 71
     0
 72
   100
 73
     1
 74
     3
 75
     0
 76
     0
 77
     0
 78
     0
281
     0
 65
     1
110
0.0
120
0.0
130
0.0
111
1.0
121
0.0
131
0.0
112
0.0
122
1.0
132
0.0
 79
     0
146
0.0
 60
     3
 61
     5
292
     1
282
     1
141
0.0
142
0.0
 63
   250
  0
ENDTAB
  0
TABLE
  2
LTYPE
  5
5
330
0
100
AcDbSymbolTable
 70
     9
  0
LTYPE
  5
14
330
5
100
AcDbSymbolTableRecord
100
AcDbLinetypeTableRecord
  2
ByBlock
 70
     0
  3

 72
    65
 73
     0
 40
0.0
  0
LTYPE
  5
15
330
5
100
AcDbSymbolTableRecord
100
AcDbLinetypeTableRecord
  2
ByLayer
 70
     0
  3

 72
    65
 73
     0
 40
0.0
  0
LTYPE
  5
16
330
5
100
AcDbSymbolTableRecord
100
AcDbLinetypeTableRecord
  2
Continuous
 70
     0
  3
Solid line
 72
    65
 73
     0
 40
0.0
  0
LTYPE
  5
8E
330
5
100
AcDbSymbolTableRecord
100
AcDbLinetypeTableRecord
  2
DOT
 70
     0
  3
DOT
 72
    65
 73
     2
 40
4.0
 49
6.0
 74
     0
 49
-2.0
 74
     0
  0
LTYPE
  5
8F
330
5
100
AcDbSymbolTableRecord
100
AcDbLinetypeTableRecord
  2
HIDDEN
 70
     0
  3
HIDDEN
 72
    65
 73
     2
 40
4.2
 49
8.4
 74
     0
 49
-4.2
 74
     0
  0
LTYPE
  5
90
330
5
100
AcDbSymbolTableRecord
100
AcDbLinetypeTableRecord
  2
DASHDOT
 70
     0
  3
DASHDOT
 72
    65
 73
     4
 40
14.5
 49
30.0
 74
     0
 49
-9.0
 74
     0
 49
2.5
 74
     0
 49
-9.0
 74
     0
  0
LTYPE
  5
91
330
5
100
AcDbSymbolTableRecord
100
AcDbLinetypeTableRecord
  2
PHANTOM
 70
     0
  3
PHANTOM
 72
    65
 73
     6
 40
12.0
 49
30.0
 74
     0
 49
-9.0
 74
     0
 49
2.5
 74
     0
 49
-5.0
 74
     0
 49
2.5
 74
     0
 49
-9.0
 74
     0
  0
LTYPE
  5
92
330
5
100
AcDbSymbolTableRecord
100
AcDbLinetypeTableRecord
  2
ACAD_ISO14W100
 70
     0
  3
ACAD_ISO14W100
 72
    65
 73
     8
 40
1.5
 49
12.0
 74
     0
 49
-3.0
 74
     0
 49
0.5
 74
     0
 49
-3.0
 74
     0
 49
0.5
 74
     0
 49
-3.0
 74
     0
 49
0.5
 74
     0
 49
-3.0
 74
     0
  0
LTYPE
  5
93
330
5
100
AcDbSymbolTableRecord
100
AcDbLinetypeTableRecord
  2
ACAD_ISO06W100
 70
     0
  3
ACAD_ISO06W100
 72
    65
 73
     8
 40
13.5
 49
24.0
 74
     0
 49
-3.0
 74
     0
 49
0.5
 74
     0
 49
-3.0
 74
     0
 49
0.5
 74
     0
 49
-3.0
 74
     0
 49
0.5
 74
     0
 49
-3.0
 74
     0
  0
LTYPE
  5
94
330
5
100
AcDbSymbolTableRecord
100
AcDbLinetypeTableRecord
  2
ACAD_ISO11W100
 70
     0
  3
ACAD_ISO11W100
 72
    65
 73
     6
 40
15.5
 49
12.0
 74
     0
 49
-3.0
 74
     0
 49
12.0
 74
     0
 49
-3.0
 74
     0
 49
0.5
 74
     0
 49
-3.0
 74
     0
  0
LTYPE
  5
95
330
5
100
AcDbSymbolTableRecord
100
AcDbLinetypeTableRecord
  2
ACAD_ISO13W100
 70
     0
  3
ACAD_ISO13W100
 72
    65
 73
     8
 40
13.0
 49
12.0
 74
     0
 49
-3.0
 74
     0
 49
12.0
 74
     0
 49
-3.0
 74
     0
 49
0.5
 74
     0
 49
-3.0
 74
     0
 49
0.5
 74
     0
 49
-3.0
 74
     0
  0
ENDTAB
  0
TABLE
  2
LAYER
  5
2
330
0
100
AcDbSymbolTable
 70
    22
  0
LAYER
  5
10
330
2
100
AcDbSymbolTableRecord
100
AcDbLayerTableRecord
  2
0
 70
     0
 62
     7
  6
Continuous
370
    -3
390
F
347
3E
  0
LAYER
  5
96
330
2
100
AcDbSymbolTableRecord
100
AcDbLayerTableRecord
  2
1
 70
     0
 62
     7
  6
Continuous
370
     9
390
F
347
3E
  0
LAYER
  5
97
330
2
100
AcDbSymbolTableRecord
100
AcDbLayerTableRecord
  2
2
 70
     0
 62
   134
  6
Continuous
370
     9
390
F
347
3E
  0
LAYER
  5
98
330
2
100
AcDbSymbolTableRecord
100
AcDbLayerTableRecord
  2
3
 70
     0
 62
   214
  6
Continuous
370
     9
390
F
347
3E
  0
LAYER
  5
99
330
2
100
AcDbSymbolTableRecord
100
AcDbLayerTableRecord
  2
4
 70
     0
 62
    54
  6
Continuous
370
     9
390
F
347
3E
  0
LAYER
  5
9A
330
2
100
AcDbSymbolTableRecord
100
AcDbLayerTableRecord
  2
5
 70
     0
 62
    94
  6
Continuous
370
     9
390
F
347
3E
  0
LAYER
  5
9B
330
2
100
AcDbSymbolTableRecord
100
AcDbLayerTableRecord
  2
6
 70
     0
 62
    14
  6
Continuous
370
     9
390
F
347
3E
  0
LAYER
  5
9C
330
2
100
AcDbSymbolTableRecord
100
AcDbLayerTableRecord
  2
7
 70
     0
 62
     4
  6
Continuous
370
     9
390
F
347
3E
  0
LAYER
  5
9D
330
2
100
AcDbSymbolTableRecord
100
AcDbLayerTableRecord
  2
8
 70
     0
 62
     6
  6
Continuous
370
     9
390
F
347
3E
  0
LAYER
  5
9E
330
2
100
AcDbSymbolTableRecord
100
AcDbLayerTableRecord
  2
9
 70
     0
 62
     2
  6
Continuous
370
     9
390
F
347
3E
  0
LAYER
  5
9F
330
2
100
AcDbSymbolTableRecord
100
AcDbLayerTableRecord
  2
10
 70
     0
 62
     3
  6
Continuous
370
     9
390
F
347
3E
  0
LAYER
  5
A0
330
2
100
AcDbSymbolTableRecord
100
AcDbLayerTableRecord
  2
11
 70
     0
 62
   251
  6
Continuous
370
     9
390
F
347
3E
  0
LAYER
  5
A1
330
2
100
AcDbSymbolTableRecord
100
AcDbLayerTableRecord
  2
12
 70
     0
 62
   136
  6
Continuous
370
     9
390
F
347
3E
  0
LAYER
  5
A2
330
2
100
AcDbSymbolTableRecord
100
AcDbLayerTableRecord
  2
13
 70
     0
 62
   216
  6
Continuous
370
     9
390
F
347
3E
  0
LAYER
  5
A3
330
2
100
AcDbSymbolTableRecord
100
AcDbLayerTableRecord
  2
14
 70
     0
 62
    56
  6
Continuous
370
     9
390
F
347
3E
  0
LAYER
  5
A4
330
2
100
AcDbSymbolTableRecord
100
AcDbLayerTableRecord
  2
15
 70
     0
 62
    96
  6
Continuous
370
     9
390
F
347
3E
  0
LAYER
  5
A5
330
2
100
AcDbSymbolTableRecord
100
AcDbLayerTableRecord
  2
16
 70
     0
 62
    16
  6
Continuous
370
     9
390
F
347
3E
  0
LAYER
  5
A6
330
2
100
AcDbSymbolTableRecord
100
AcDbLayerTableRecord
  2
17
 70
     0
 62
   132
  6
Continuous
370
     9
390
F
347
3E
  0
LAYER
  5
A7
330
2
100
AcDbSymbolTableRecord
100
AcDbLayerTableRecord
  2
18
 70
     0
 62
   212
  6
Continuous
370
     9
390
F
347
3E
  0
LAYER
  5
A8
330
2
100
AcDbSymbolTableRecord
100
AcDbLayerTableRecord
  2
19
 70
     0
 62
    52
  6
Continuous
370
     9
390
F
347
3E
  0
LAYER
  5
A9
330
2
100
AcDbSymbolTableRecord
100
AcDbLayerTableRecord
  2
20
 70
     0
 62
   250
  6
Continuous
370
     9
390
F
347
3E
  0
LAYER
  5
AA
330
2
100
AcDbSymbolTableRecord
100
AcDbLayerTableRecord
  2
128
 70
     0
 62
     7
  6
Continuous
370
     9
390
F
347
3E
  0
ENDTAB
  0
TABLE
  2
STYLE
  5
3
330
0
100
AcDbSymbolTable
 70
     2
  0
STYLE
  5
11
330
3
100
AcDbSymbolTableRecord
100
AcDbTextStyleTableRecord
  2
Standard
 70
     0
 40
0.0
 41
1.0
 50
0.0
 71
     0
 42
5.0
  3
txt
  4
bigfont
  0
STYLE
  5
41
330
3
100
AcDbSymbolTableRecord
100
AcDbTextStyleTableRecord
  2
T_STANDARD
 70
     4
 40
10.0
 41
1.0
 50
0.0
 71
     0
 42
10.0
  3
txt
  4
bigfont
  0
ENDTAB
  0
TABLE
  2
VIEW
  5
6
330
0
100
AcDbSymbolTable
 70
     0
  0
ENDTAB
  0
TABLE
  2
UCS
  5
7
330
0
100
AcDbSymbolTable
 70
     0
  0
ENDTAB
  0
TABLE
  2
APPID
  5
9
330
0
100
AcDbSymbolTable
 70
     2
  0
APPID
  5
12
330
9
100
AcDbSymbolTableRecord
100
AcDbRegAppTableRecord
  2
ACAD
 70
     0
  0
APPID
  5
40
330
9
100
AcDbSymbolTableRecord
100
AcDbRegAppTableRecord
  2
ODA
 70
     0
  0
ENDTAB
  0
TABLE
  2
DIMSTYLE
  5
A
330
0
100
AcDbSymbolTable
 70
     1
100
AcDbDimStyleTable
  0
DIMSTYLE
105
27
330
A
100
AcDbSymbolTableRecord
100
AcDbDimStyleTableRecord
  2
Standard
 70
     0
178
     0
340
11
  0
ENDTAB
  0
TABLE
  2
BLOCK_RECORD
  5
1
330
0
100
AcDbSymbolTable
 70
    16
  0
BLOCK_RECORD
  5
1F
330
1
100
AcDbSymbolTableRecord
100
AcDbBlockTableRecord
  2
*Model_Space
340
22
 70
     0
280
     1
281
     0
  0
BLOCK_RECORD
  5
1B
330
1
100
AcDbSymbolTableRecord
100
AcDbBlockTableRecord
  2
*Paper_Space
340
1E
 70
     0
280
     1
281
     0
  0
BLOCK_RECORD
  5
23
330
1
100
AcDbSymbolTableRecord
100
AcDbBlockTableRecord
  2
*Paper_Space0
340
26
 70
     0
280
     1
281
     0
  0
BLOCK_RECORD
  5
42
330
1
100
AcDbSymbolTableRecord
100
AcDbBlockTableRecord
  2
_ORIGIN
340
0
 70
     0
280
     1
281
     0
  0
BLOCK_RECORD
  5
47
330
1
100
AcDbSymbolTableRecord
100
AcDbBlockTableRecord
  2
_DOTBLANK
340
0
 70
     0
280
     1
281
     0
  0
BLOCK_RECORD
  5
4C
330
1
100
AcDbSymbolTableRecord
100
AcDbBlockTableRecord
  2
_DOT
340
0
 70
     0
280
     1
281
     0
  0
BLOCK_RECORD
  5
51
330
1
100
AcDbSymbolTableRecord
100
AcDbBlockTableRecord
  2
_OPEN
340
0
 70
     0
280
     1
281
     0
  0
BLOCK_RECORD
  5
57
330
1
100
AcDbSymbolTableRecord
100
AcDbBlockTableRecord
  2
_CLOSED
340
0
 70
     0
280
     1
281
     0
  0
BLOCK_RECORD
  5
5E
330
1
100
AcDbSymbolTableRecord
100
AcDbBlockTableRecord
  2
_CLOSEDBLANK
340
0
 70
     0
280
     1
281
     0
  0
BLOCK_RECORD
  5
64
330
1
100
AcDbSymbolTableRecord
100
AcDbBlockTableRecord
  2
_ARROWFILLED
340
0
 70
     0
280
     1
281
     0
  0
BLOCK_RECORD
  5
68
330
1
100
AcDbSymbolTableRecord
100
AcDbBlockTableRecord
  2
_BOXBLANK
340
0
 70
     0
280
     1
281
     0
  0
BLOCK_RECORD
  5
70
330
1
100
AcDbSymbolTableRecord
100
AcDbBlockTableRecord
  2
_BOXFILLED
340
0
 70
     0
280
     1
281
     0
  0
BLOCK_RECORD
  5
75
330
1
100
AcDbSymbolTableRecord
100
AcDbBlockTableRecord
  2
_INTEGRAL
340
0
 70
     0
280
     1
281
     0
  0
BLOCK_RECORD
  5
7A
330
1
100
AcDbSymbolTableRecord
100
AcDbBlockTableRecord
  2
_OBLIQUE
340
0
 70
     0
280
     1
281
     0
  0
BLOCK_RECORD
  5
7E
330
1
100
AcDbSymbolTableRecord
100
AcDbBlockTableRecord
  2
_NONE
340
0
 70
     0
280
     1
281
     0
  0
BLOCK_RECORD
  5
81
330
1
100
AcDbSymbolTableRecord
100
AcDbBlockTableRecord
  2
MARK_OPEN
340
0
 70
     0
280
     1
281
     0
  0
BLOCK_RECORD
  5
86
330
1
100
AcDbSymbolTableRecord
100
AcDbBlockTableRecord
  2
MARK_ORIGIN
340
0
 70
     0
280
     1
281
     0
  0
BLOCK_RECORD
  5
8A
330
1
100
AcDbSymbolTableRecord
100
AcDbBlockTableRecord
  2
MARK_DOT
340
0
 70
     0
280
     1
281
     0
  0
ENDTAB
  0
ENDSEC
  0
SECTION
  2
BLOCKS
  0
BLOCK
  5
20
330
1F
100
AcDbEntity
  8
0
100
AcDbBlockBegin
  2
*Model_Space
 70
     0
 10
0.0
 20
0.0
 30
0.0
  3
*Model_Space
  1

  0
ENDBLK
  5
21
330
1F
100
AcDbEntity
  8
0
100
AcDbBlockEnd
  0
BLOCK
  5
1C
330
1B
100
AcDbEntity
 67
     1
  8
0
100
AcDbBlockBegin
  2
*Paper_Space
 70
     0
 10
0.0
 20
0.0
 30
0.0
  3
*Paper_Space
  1

  0
ENDBLK
  5
1D
330
1B
100
AcDbEntity
 67
     1
  8
0
100
AcDbBlockEnd
  0
BLOCK
  5
24
330
23
100
AcDbEntity
  8
0
100
AcDbBlockBegin
  2
*Paper_Space0
 70
     0
 10
0.0
 20
0.0
 30
0.0
  3
*Paper_Space0
  1

  0
ENDBLK
  5
25
330
23
100
AcDbEntity
  8
0
100
AcDbBlockEnd
  0
BLOCK
  5
45
330
42
100
AcDbEntity
  8
0
100
AcDbBlockBegin
  2
_ORIGIN
 70
     0
 10
0.0
 20
0.0
 30
0.0
  3
_ORIGIN
  1

  0
CIRCLE
  5
43
330
42
100
AcDbEntity
  8
0
100
AcDbCircle
 10
0.0
 20
0.0
 30
0.0
 40
0.5
  0
LINE
  5
44
330
42
100
AcDbEntity
  8
0
100
AcDbLine
 10
0.0
 20
0.0
 30
0.0
 11
-1.0
 21
0.0
 31
0.0
  0
ENDBLK
  5
46
330
42
100
AcDbEntity
  8
0
100
AcDbBlockEnd
  0
BLOCK
  5
4A
330
47
100
AcDbEntity
  8
0
100
AcDbBlockBegin
  2
_DOTBLANK
 70
     0
 10
0.0
 20
0.0
 30
0.0
  3
_DOTBLANK
  1

  0
CIRCLE
  5
48
330
47
100
AcDbEntity
  8
0
100
AcDbCircle
 10
0.0
 20
0.0
 30
0.0
 40
0.5
  0
LINE
  5
49
330
47
100
AcDbEntity
  8
0
100
AcDbLine
 10
-0.5
 20
0.0
 30
0.0
 11
-1.0
 21
0.0
 31
0.0
  0
ENDBLK
  5
4B
330
47
100
AcDbEntity
  8
0
100
AcDbBlockEnd
  0
BLOCK
  5
4F
330
4C
100
AcDbEntity
  8
0
100
AcDbBlockBegin
  2
_DOT
 70
     0
 10
0.0
 20
0.0
 30
0.0
  3
_DOT
  1

  0
LWPOLYLINE
  5
4D
330
4C
100
AcDbEntity
  8
0
100
AcDbPolyline
 90
        2
 70
     1
 43
0.5
 10
-0.25
 20
0.0
 42
1.0
 10
0.25
 20
0.0
 42
1.0
  0
LINE
  5
4E
330
4C
100
AcDbEntity
  8
0
100
AcDbLine
 10
-0.5
 20
0.0
 30
0.0
 11
-1.0
 21
0.0
 31
0.0
  0
ENDBLK
  5
50
330
4C
100
AcDbEntity
  8
0
100
AcDbBlockEnd
  0
BLOCK
  5
55
330
51
100
AcDbEntity
  8
0
100
AcDbBlockBegin
  2
_OPEN
 70
     0
 10
0.0
 20
0.0
 30
0.0
  3
_OPEN
  1

  0
LINE
  5
52
330
51
100
AcDbEntity
  8
0
100
AcDbLine
 10
0.0
 20
0.0
 30
0.0
 11
-1.0
 21
0.1666666666666667
 31
0.0
  0
LINE
  5
53
330
51
100
AcDbEntity
  8
0
100
AcDbLine
 10
0.0
 20
0.0
 30
0.0
 11
-1.0
 21
-0.1666666666666667
 31
0.0
  0
LINE
  5
54
330
51
100
AcDbEntity
  8
0
100
AcDbLine
 10
0.0
 20
0.0
 30
0.0
 11
-1.0
 21
0.0
 31
0.0
  0
ENDBLK
  5
56
330
51
100
AcDbEntity
  8
0
100
AcDbBlockEnd
  0
BLOCK
  5
5C
330
57
100
AcDbEntity
  8
0
100
AcDbBlockBegin
  2
_CLOSED
 70
     0
 10
0.0
 20
0.0
 30
0.0
  3
_CLOSED
  1

  0
LINE
  5
58
330
57
100
AcDbEntity
  8
0
100
AcDbLine
 10
0.0
 20
0.0
 30
0.0
 11
-1.0
 21
0.1666666666666667
 31
0.0
  0
LINE
  5
59
330
57
100
AcDbEntity
  8
0
100
AcDbLine
 10
0.0
 20
0.0
 30
0.0
 11
-1.0
 21
-0.1666666666666667
 31
0.0
  0
LINE
  5
5A
330
57
100
AcDbEntity
  8
0
100
AcDbLine
 10
-1.0
 20
0.1666666666666667
 30
0.0
 11
-1.0
 21
-0.1666666666666667
 31
0.0
  0
LINE
  5
5B
330
57
100
AcDbEntity
  8
0
100
AcDbLine
 10
0.0
 20
0.0
 30
0.0
 11
-1.0
 21
0.0
 31
0.0
  0
ENDBLK
  5
5D
330
57
100
AcDbEntity
  8
0
100
AcDbBlockEnd
  0
BLOCK
  5
62
330
5E
100
AcDbEntity
  8
0
100
AcDbBlockBegin
  2
_CLOSEDBLANK
 70
     0
 10
0.0
 20
0.0
 30
0.0
  3
_CLOSEDBLANK
  1

  0
LINE
  5
5F
330
5E
100
AcDbEntity
  8
0
100
AcDbLine
 10
0.0
 20
0.0
 30
0.0
 11
-1.0
 21
0.1666666666666667
 31
0.0
  0
LINE
  5
60
330
5E
100
AcDbEntity
  8
0
100
AcDbLine
 10
0.0
 20
0.0
 30
0.0
 11
-1.0
 21
-0.1666666666666667
 31
0.0
  0
LINE
  5
61
330
5E
100
AcDbEntity
  8
0
100
AcDbLine
 10
-1.0
 20
0.1666666666666667
 30
0.0
 11
-1.0
 21
-0.1666666666666667
 31
0.0
  0
ENDBLK
  5
63
330
5E
100
AcDbEntity
  8
0
100
AcDbBlockEnd
  0
BLOCK
  5
66
330
64
100
AcDbEntity
  8
0
100
AcDbBlockBegin
  2
_ARROWFILLED
 70
     0
 10
0.0
 20
0.0
 30
0.0
  3
_ARROWFILLED
  1

  0
SOLID
  5
65
330
64
100
AcDbEntity
  8
0
100
AcDbTrace
 10
0.0
 20
0.0
 30
0.0
 11
-1.0
 21
-0.1666666666666667
 31
0.0
 12
-1.0
 22
0.1666666666666667
 32
0.0
 13
0.0
 23
0.0
 33
0.0
  0
ENDBLK
  5
67
330
64
100
AcDbEntity
  8
0
100
AcDbBlockEnd
  0
BLOCK
  5
6E
330
68
100
AcDbEntity
  8
0
100
AcDbBlockBegin
  2
_BOXBLANK
 70
     0
 10
0.0
 20
0.0
 30
0.0
  3
_BOXBLANK
  1

  0
LINE
  5
69
330
68
100
AcDbEntity
  8
0
100
AcDbLine
 10
-0.5
 20
-0.5
 30
0.0
 11
0.5
 21
-0.5
 31
0.0
  0
LINE
  5
6A
330
68
100
AcDbEntity
  8
0
100
AcDbLine
 10
0.5
 20
-0.5
 30
0.0
 11
0.5
 21
0.5
 31
0.0
  0
LINE
  5
6B
330
68
100
AcDbEntity
  8
0
100
AcDbLine
 10
0.5
 20
0.5
 30
0.0
 11
-0.5
 21
0.5
 31
0.0
  0
LINE
  5
6C
330
68
100
AcDbEntity
  8
0
100
AcDbLine
 10
-0.5
 20
0.5
 30
0.0
 11
-0.5
 21
-0.5
 31
0.0
  0
LINE
  5
6D
330
68
100
AcDbEntity
  8
0
100
AcDbLine
 10
-0.5
 20
0.0
 30
0.0
 11
-1.0
 21
0.0
 31
0.0
  0
ENDBLK
  5
6F
330
68
100
AcDbEntity
  8
0
100
AcDbBlockEnd
  0
BLOCK
  5
73
330
70
100
AcDbEntity
  8
0
100
AcDbBlockBegin
  2
_BOXFILLED
 70
     0
 10
0.0
 20
0.0
 30
0.0
  3
_BOXFILLED
  1

  0
SOLID
  5
71
330
70
100
AcDbEntity
  8
0
100
AcDbTrace
 10
-0.5
 20
0.5
 30
0.0
 11
0.5
 21
0.5
 31
0.0
 12
-0.5
 22
-0.5
 32
0.0
 13
0.5
 23
-0.5
 33
0.0
  0
LINE
  5
72
330
70
100
AcDbEntity
  8
0
100
AcDbLine
 10
-0.5
 20
0.0
 30
0.0
 11
-1.0
 21
0.0
 31
0.0
  0
ENDBLK
  5
74
330
70
100
AcDbEntity
  8
0
100
AcDbBlockEnd
  0
BLOCK
  5
78
330
75
100
AcDbEntity
  8
0
100
AcDbBlockBegin
  2
_INTEGRAL
 70
     0
 10
0.0
 20
0.0
 30
0.0
  3
_INTEGRAL
  1

  0
ARC
  5
76
330
75
100
AcDbEntity
  8
0
100
AcDbCircle
 10
0.444888
 20
-0.0913346
 30
0.0
 40
0.4541666
100
AcDbArc
 50
101.9999999999999
 51
167.9999999999998
  0
ARC
  5
77
330
75
100
AcDbEntity
  8
0
100
AcDbCircle
 10
-0.444888
 20
0.0913346
 30
0.0
 40
0.4541666
100
AcDbArc
 50
281.9999999999997
 51
347.9999999999997
  0
ENDBLK
  5
79
330
75
100
AcDbEntity
  8
0
100
AcDbBlockEnd
  0
BLOCK
  5
7C
330
7A
100
AcDbEntity
  8
0
100
AcDbBlockBegin
  2
_OBLIQUE
 70
     0
 10
0.0
 20
0.0
 30
0.0
  3
_OBLIQUE
  1

  0
LINE
  5
7B
330
7A
100
AcDbEntity
  8
0
100
AcDbLine
 10
-0.5
 20
-0.5
 30
0.0
 11
0.5
 21
0.5
 31
0.0
  0
ENDBLK
  5
7D
330
7A
100
AcDbEntity
  8
0
100
AcDbBlockEnd
  0
BLOCK
  5
7F
330
7E
100
AcDbEntity
  8
0
100
AcDbBlockBegin
  2
_NONE
 70
     0
 10
0.0
 20
0.0
 30
0.0
  3
_NONE
  1

  0
ENDBLK
  5
80
330
7E
100
AcDbEntity
  8
0
100
AcDbBlockEnd
  0
BLOCK
  5
84
330
81
100
AcDbEntity
  8
0
100
AcDbBlockBegin
  2
MARK_OPEN
 70
     0
 10
0.0
 20
0.0
 30
0.0
  3
MARK_OPEN
  1

  0
LINE
  5
82
330
81
100
AcDbEntity
  8
0
100
AcDbLine
 10
0.0
 20
0.0
 30
0.0
 11
-1.0
 21
0.1666666666666667
 31
0.0
  0
LINE
  5
83
330
81
100
AcDbEntity
  8
0
100
AcDbLine
 10
0.0
 20
0.0
 30
0.0
 11
-1.0
 21
-0.1666666666666667
 31
0.0
  0
ENDBLK
  5
85
330
81
100
AcDbEntity
  8
0
100
AcDbBlockEnd
  0
BLOCK
  5
88
330
86
100
AcDbEntity
  8
0
100
AcDbBlockBegin
  2
MARK_ORIGIN
 70
     0
 10
0.0
 20
0.0
 30
0.0
  3
MARK_ORIGIN
  1

  0
CIRCLE
  5
87
330
86
100
AcDbEntity
  8
0
100
AcDbCircle
 10
0.0
 20
0.0
 30
0.0
 40
0.5
  0
ENDBLK
  5
89
330
86
100
AcDbEntity
  8
0
100
AcDbBlockEnd
  0
BLOCK
  5
8C
330
8A
100
AcDbEntity
  8
0
100
AcDbBlockBegin
  2
MARK_DOT
 70
     0
 10
0.0
 20
0.0
 30
0.0
  3
MARK_DOT
  1

  0
LWPOLYLINE
  5
8B
330
8A
100
AcDbEntity
  8
0
100
AcDbPolyline
 90
        2
 70
     1
 43
0.5
 10
-0.25
 20
0.0
 42
1.0
 10
0.25
 20
0.0
 42
1.0
  0
ENDBLK
  5
8D
330
8A
100
AcDbEntity
  8
0
100
AcDbBlockEnd
  0
ENDSEC
  0
SECTION
  2
ENTITIES
  0
LINE
  5
AB
330
1F
100
AcDbEntity
  8
1
  6
Continuous
 62
     7
370
     9
100
AcDbLine
 10
48.25493214577766
 20
86.17549121291869
 30
0.0
 11
55.7575095338491
 21
86.17549121291869
 31
0.0
  0
LINE
  5
AC
330
1F
100
AcDbEntity
  8
1
  6
Continuous
 62
     7
370
     9
100
AcDbLine
 10
48.25493214577766
 20
72.31908475236763
 30
0.0
 11
55.7575095338491
 21
72.31908475236763
 31
0.0
  0
LINE
  5
AD
330
1F
100
AcDbEntity
  8
1
  6
Continuous
 62
     7
370
     9
100
AcDbLine
 10
48.25493214577766
 20
75.78318636750542
 30
0.0
 11
55.75750953384909
 21
75.78318636750542
 31
0.0
  0
LINE
  5
AE
330
1F
100
AcDbEntity
  8
1
  6
Continuous
 62
     7
370
     9
100
AcDbLine
 10
48.00622083981338
 20
73.24728798264316
 30
0.0
 11
48.00622083981338
 21
85.24728798264316
 31
0.0
  0
LINE
  5
AF
330
1F
100
AcDbEntity
  8
1
  6
Continuous
 62
     7
370
     9
100
AcDbLine
 10
56.00622083981338
 20
73.24728798264316
 30
0.0
 11
56.00622083981338
 21
85.24728798264316
 31
0.0
  0
LINE
  5
B0
330
1F
100
AcDbEntity
  8
1
  6
Continuous
 62
     7
370
     9
100
AcDbLine
 10
48.00622083981338
 20
73.24728798264316
 30
0.0
 11
48.25493214577766
 21
72.31908475236763
 31
0.0
  0
LINE
  5
B1
330
1F
100
AcDbEntity
  8
1
  6
Continuous
 62
     7
370
     9
100
AcDbLine
 10
56.00622083981338
 20
73.24728798264316
 30
0.0
 11
55.7575095338491
 21
72.31908475236763
 31
0.0
  0
LINE
  5
B2
330
1F
100
AcDbEntity
  8
1
  6
Continuous
 62
     7
370
     9
100
AcDbLine
 10
48.25493214577766
 20
82.7113895977809
 30
0.0
 11
55.7575095338491
 21
82.7113895977809
 31
0.0
  0
LINE
  5
B3
330
1F
100
AcDbEntity
  8
1
  6
Continuous
 62
     7
370
     9
100
AcDbLine
 10
48.00622083981338
 20
85.24728798264316
 30
0.0
 11
48.25493214577766
 21
86.17549121291869
 31
0.0
  0
LINE
  5
B4
330
1F
100
AcDbEntity
  8
1
  6
Continuous
 62
     7
370
     9
100
AcDbLine
 10
56.00622083981338
 20
85.24728798264316
 30
0.0
 11
55.7575095338491
 21
86.17549121291869
 31
0.0
  0
LINE
  5
B5
330
1F
100
AcDbEntity
  8
1
  6
Continuous
 62
     7
370
     9
100
AcDbLine
 10
38.00622083981324
 20
83.1872254826432
 30
0.0
 11
38.83202729142619
 21
84.01303193425609
 31
0.0
  0
LINE
  5
B6
330
1F
100
AcDbEntity
  8
1
  6
Continuous
 62
     7
370
     9
100
AcDbLine
 10
38.83202729142633
 20
84.01303193425606
 30
0.0
 11
48.00622083981338
 21
84.29972548264315
 31
0.0
  0
LINE
  5
B7
330
1F
100
AcDbEntity
  8
1
  6
Continuous
 62
     7
370
     9
100
AcDbLine
 10
38.83202729142633
 20
84.01303193425609
 30
0.0
 11
38.83202729142633
 21
74.48154403103023
 31
0.0
  0
LINE
  5
B8
330
1F
100
AcDbEntity
  8
1
  6
Continuous
 62
     7
370
     9
100
AcDbLine
 10
38.00622083981338
 20
83.18722548264317
 30
0.0
 11
38.00622083981338
 21
75.30735048264317
 31
0.0
  0
LINE
  5
B9
330
1F
100
AcDbEntity
  8
1
  6
Continuous
 62
     7
370
     9
100
AcDbLine
 10
38.23228535594255
 20
75.0812859665141
 30
0.0
 11
46.94231365503549
 21
74.80909758216744
 31
0.0
  0
LINE
  5
BA
330
1F
100
AcDbEntity
  8
1
  6
Continuous
 62
     7
370
     9
100
AcDbLine
 10
38.00622083981347
 20
75.30735048264312
 30
0.0
 11
38.83202729142631
 21
74.48154403103028
 31
0.0
  0
LINE
  5
BB
330
1F
100
AcDbEntity
  8
1
  6
Continuous
 62
     7
370
     9
100
AcDbLine
 10
38.83202729142612
 20
74.48154403103025
 30
0.0
 11
48.00622083981338
 21
74.19485048264313
 31
0.0
  0
LINE
  5
BC
330
1F
100
AcDbEntity
  8
1
  6
Continuous
 62
     7
370
     9
100
AcDbLine
 10
38.23228535594254
 20
83.41328999877219
 30
0.0
 11
46.94231365503546
 21
83.68547838311885
 31
0.0
  0
LINE
  5
BD
330
1F
100
AcDbEntity
  8
1
  6
Continuous
 62
     7
370
     9
100
AcDbLine
 10
46.94231365503546
 20
83.68547838311885
 30
0.0
 11
48.00622083981338
 21
84.29972548264315
 31
0.0
  0
LINE
  5
BE
330
1F
100
AcDbEntity
  8
1
  6
Continuous
 62
     7
370
     9
100
AcDbLine
 10
46.94231365503546
 20
74.80909758216747
 30
0.0
 11
48.00622083981338
 21
74.19485048264316
 31
0.0
  0
LINE
  5
BF
330
1F
100
AcDbEntity
  8
1
  6
Continuous
 62
     7
370
     9
100
AcDbLine
 10
46.94231365503546
 20
74.22809758216745
 30
0.0
 11
46.94231365503546
 21
84.26647838311884
 31
0.0
  0
LINE
  5
C0
330
1F
100
AcDbEntity
  8
1
  6
Continuous
 62
     7
370
     9
100
AcDbLine
 10
57.0701280245913
 20
74.80909758216747
 30
0.0
 11
56.00622083981338
 21
74.19485048264316
 31
0.0
  0
LINE
  5
C1
330
1F
100
AcDbEntity
  8
1
  6
Continuous
 62
     7
370
     9
100
AcDbLine
 10
57.0701280245913
 20
74.22809758216745
 30
0.0
 11
57.0701280245913
 21
84.26647838311884
 31
0.0
  0
LINE
  5
C2
330
1F
100
AcDbEntity
  8
1
  6
Continuous
 62
     7
370
     9
100
AcDbLine
 10
65.78015632368422
 20
83.41328999877219
 30
0.0
 11
57.0701280245913
 21
83.68547838311885
 31
0.0
  0
LINE
  5
C3
330
1F
100
AcDbEntity
  8
1
  6
Continuous
 62
     7
370
     9
100
AcDbLine
 10
65.18041438820065
 20
74.48154403103025
 30
0.0
 11
56.00622083981338
 21
74.19485048264313
 31
0.0
  0
LINE
  5
C4
330
1F
100
AcDbEntity
  8
1
  6
Continuous
 62
     7
370
     9
100
AcDbLine
 10
66.0062208398133
 20
75.30735048264312
 30
0.0
 11
65.18041438820045
 21
74.48154403103028
 31
0.0
  0
LINE
  5
C5
330
1F
100
AcDbEntity
  8
1
  6
Continuous
 62
     7
370
     9
100
AcDbLine
 10
65.18041438820043
 20
84.01303193425606
 30
0.0
 11
56.00622083981338
 21
84.29972548264315
 31
0.0
  0
LINE
  5
C6
330
1F
100
AcDbEntity
  8
1
  6
Continuous
 62
     7
370
     9
100
AcDbLine
 10
57.0701280245913
 20
83.68547838311885
 30
0.0
 11
56.00622083981338
 21
84.29972548264315
 31
0.0
  0
LINE
  5
C7
330
1F
100
AcDbEntity
  8
1
  6
Continuous
 62
     7
370
     9
100
AcDbLine
 10
65.18041438820043
 20
84.01303193425609
 30
0.0
 11
65.18041438820043
 21
74.48154403103023
 31
0.0
  0
LINE
  5
C8
330
1F
100
AcDbEntity
  8
1
  6
Continuous
 62
     7
370
     9
100
AcDbLine
 10
66.00622083981352
 20
83.1872254826432
 30
0.0
 11
65.18041438820057
 21
84.01303193425609
 31
0.0
  0
LINE
  5
C9
330
1F
100
AcDbEntity
  8
1
  6
Continuous
 62
     7
370
     9
100
AcDbLine
 10
65.78015632368421
 20
75.0812859665141
 30
0.0
 11
57.07012802459127
 21
74.80909758216744
 31
0.0
  0
LINE
  5
CA
330
1F
100
AcDbEntity
  8
1
  6
Continuous
 62
     7
370
     9
100
AcDbLine
 10
66.00622083981338
 20
83.18722548264317
 30
0.0
 11
66.00622083981338
 21
75.30735048264317
 31
0.0
  0
ARC
  5
CB
330
1F
100
AcDbEntity
  8
1
  6
Continuous
 62
     7
370
     9
100
AcDbCircle
 10
54.16166540604111
 20
74.05113555993653
 30
0.0
 40
6.155444566227734
100
AcDbArc
 50
163.6571066940157
 51
196.3428933059845
  0
ARC
  5
CC
330
1F
100
AcDbEntity
  8
1
  6
Continuous
 62
     7
370
     9
100
AcDbCircle
 10
72.2549321457773
 20
79.24728798264316
 30
0.0
 40
24.24871130596393
100
AcDbArc
 50
171.7867892982617
 51
188.2132107017385
  0
ARC
  5
CD
330
1F
100
AcDbEntity
  8
1
  6
Continuous
 62
     7
370
     9
100
AcDbCircle
 10
54.16166540604111
 20
84.44344040534979
 30
0.0
 40
6.155444566227734
100
AcDbArc
 50
163.6571066940159
 51
196.3428933059848
  0
ARC
  5
CE
330
1F
100
AcDbEntity
  8
1
  6
Continuous
 62
     7
370
     9
100
AcDbCircle
 10
31.75750953384946
 20
79.24728798264316
 30
0.0
 40
24.24871130596393
100
AcDbArc
 50
351.7867892982621
 51
8.213210701738266
  0
ARC
  5
CF
330
1F
100
AcDbEntity
  8
1
  6
Continuous
 62
     7
370
     9
100
AcDbCircle
 10
49.85077627358565
 20
74.05113555993653
 30
0.0
 40
6.155444566227732
100
AcDbArc
 50
343.6571066940161
 51
16.34289330598431
  0
ARC
  5
D0
330
1F
100
AcDbEntity
  8
1
  6
Continuous
 62
     7
370
     9
100
AcDbCircle
 10
49.85077627358565
 20
84.44344040534979
 30
0.0
 40
6.155444566227732
100
AcDbArc
 50
343.6571066940159
 51
16.34289330598406
  0
LINE
  5
D1
330
1F
100
AcDbEntity
  8
1
  6
Continuous
 62
     7
370
     9
100
AcDbLine
 10
92.00622083981341
 20
86.17549121291869
 30
0.0
 11
86.00622083981341
 21
82.7113895977809
 31
0.0
  0
LINE
  5
D2
330
1F
100
AcDbEntity
  8
1
  6
Continuous
 62
     7
370
     9
100
AcDbLine
 10
86.00622083981338
 20
82.7113895977809
 30
0.0
 11
86.00622083981338
 21
75.78318636750542
 31
0.0
  0
LINE
  5
D3
330
1F
100
AcDbEntity
  8
1
  6
Continuous
 62
     7
370
     9
100
AcDbLine
 10
92.00622083981341
 20
72.31908475236763
 30
0.0
 11
86.00622083981341
 21
75.78318636750542
 31
0.0
  0
LINE
  5
D4
330
1F
100
AcDbEntity
  8
1
  6
Continuous
 62
     7
370
     9
100
AcDbLine
 10
98.00622083981341
 20
75.7831863675054
 30
0.0
 11
92.00622083981341
 21
72.31908475236766
 31
0.0
  0
LINE
  5
D5
330
1F
100
AcDbEntity
  8
1
  6
Continuous
 62
     7
370
     9
100
AcDbLine
 10
98.0062208398133
 20
82.7113895977809
 30
0.0
 11
98.0062208398133
 21
75.7831863675054
 31
0.0
  0
LINE
  5
D6
330
1F
100
AcDbEntity
  8
1
  6
Continuous
 62
     7
370
     9
100
AcDbLine
 10
92.00622083981341
 20
86.17549121291866
 30
0.0
 11
98.00622083981341
 21
82.7113895977809
 31
0.0
  0
CIRCLE
  5
D7
330
1F
100
AcDbEntity
  8
1
  6
Continuous
 62
     7
370
     9
100
AcDbCircle
 10
92.00622083981341
 20
79.24728798264316
 30
0.0
 40
4.864000000000004
  0
CIRCLE
  5
D8
330
1F
100
AcDbEntity
  8
1
  6
Continuous
 62
     7
370
     9
100
AcDbCircle
 10
92.00622083981341
 20
79.24728798264316
 30
0.0
 40
4.283000000000001
  0
CIRCLE
  5
D9
330
1F
100
AcDbEntity
  8
1
  6
Continuous
 62
     7
370
     9
100
AcDbCircle
 10
92.00622083981341
 20
79.24728798264316
 30
0.0
 40
2.5
  0
CIRCLE
  5
DA
330
1F
100
AcDbEntity
  8
1
  6
Continuous
 62
     7
370
     9
100
AcDbCircle
 10
92.00622083981341
 20
79.24728798264316
 30
0.0
 40
2.799999999999997
  0
CIRCLE
  5
DB
330
1F
100
AcDbEntity
  8
1
  6
Continuous
 62
     7
370
     9
100
AcDbCircle
 10
92.00622083981341
 20
79.24728798264316
 30
0.0
 40
3.939999999999998
  0
CIRCLE
  5
DC
330
1F
100
AcDbEntity
  8
1
  6
Continuous
 62
     7
370
     9
100
AcDbCircle
 10
92.00622083981341
 20
79.24728798264316
 30
0.0
 40
5.052499999999995
  0
CIRCLE
  5
DD
330
1F
100
AcDbEntity
  8
1
  6
Continuous
 62
     7
370
     9
100
AcDbCircle
 10
92.00622083981341
 20
79.24728798264316
 30
0.0
 40
6.0
  0
LINE
  5
DE
330
1F
100
AcDbEntity
  8
1
  6
Continuous
 62
     7
370
     9
100
AcDbLine
 10
161.9468126783618
 20
486.5728840452181
 30
0.0
 11
132.4782832210132
 21
485.6519923349273
 31
0.0
  0
LINE
  5
DF
330
1F
100
AcDbEntity
  8
1
  6
Continuous
 62
     7
370
     9
100
AcDbLine
 10
81.37828322101302
 20
569.8043545878694
 30
0.0
 11
83.34590228076252
 21
571.7719736476189
 31
0.0
  0
LINE
  5
E0
330
1F
100
AcDbEntity
  8
1
  6
Continuous
 62
     7
370
     9
100
AcDbLine
 10
115.378283221013
 20
575.9043545878694
 30
0.0
 11
115.378283221013
 21
528.4043545878694
 31
0.0
  0
LINE
  5
E1
330
1F
100
AcDbEntity
  8
1
  6
Continuous
 62
     7
370
     9
100
AcDbLine
 10
115.378283221013
 20
575.9043545878694
 30
0.0
 11
116.7180291831686
 21
580.9043545878694
 31
0.0
  0
LINE
  5
E2
330
1F
100
AcDbEntity
  8
1
  6
Continuous
 62
     7
370
     9
100
AcDbLine
 10
129.50387485108
 20
482.5792940988867
 30
0.0
 11
129.3470483495423
 21
482.5743932520094
 31
0.0
  0
LINE
  5
E3
330
1F
100
AcDbEntity
  8
1
  6
Continuous
 62
     7
370
     9
100
AcDbLine
 10
116.7180291831688
 20
506.0436748128715
 30
0.0
 11
127.0385372588574
 21
506.0436748128715
 31
0.0
  0
LINE
  5
E4
330
1F
100
AcDbEntity
  8
1
  6
Continuous
 62
     7
370
     9
100
AcDbLine
 10
116.7180291831688
 20
498.4484877956075
 30
0.0
 11
127.0385372588574
 21
498.4484877956075
 31
0.0
  0
LINE
  5
E5
330
1F
100
AcDbEntity
  8
1
  6
Continuous
 62
     7
370
     9
100
AcDbLine
 10
162.3782832210131
 20
569.8043545878694
 30
0.0
 11
162.3782832210131
 21
487.0043545878694
 31
0.0
  0
LINE
  5
E6
330
1F
100
AcDbEntity
  8
1
  6
Continuous
 62
     7
370
     9
100
AcDbLine
 10
162.3782832210131
 20
569.8043545878694
 30
0.0
 11
160.4200904040978
 21
571.7625474047848
 31
0.0
  0
LINE
  5
E7
330
1F
100
AcDbEntity
  8
1
  6
Continuous
 62
     7
370
     9
100
AcDbLine
 10
128.3782832210131
 20
575.9043545878694
 30
0.0
 11
128.3782832210131
 21
480.9043545878695
 31
0.0
  0
LINE
  5
E8
330
1F
100
AcDbEntity
  8
1
  6
Continuous
 62
     7
370
     9
100
AcDbLine
 10
128.378283221013
 20
575.9043545878694
 30
0.0
 11
127.0385372588574
 21
580.9043545878694
 31
0.0
  0
LINE
  5
E9
330
1F
100
AcDbEntity
  8
1
  6
Continuous
 62
     7
370
     9
100
AcDbLine
 10
162.378283221013
 20
487.0043545878694
 30
0.0
 11
160.4200904040977
 21
485.046161770954
 31
0.0
  0
LINE
  5
EA
330
1F
100
AcDbEntity
  8
1
  6
Continuous
 62
     7
370
     9
100
AcDbLine
 10
162.378283221013
 20
487.0043545878694
 30
0.0
 11
160.4200904040978
 21
485.046161770954
 31
0.0
  0
LINE
  5
EB
330
1F
100
AcDbEntity
  8
1
  6
Continuous
 62
     7
370
     9
100
AcDbLine
 10
116.7180291831688
 20
580.9043545878694
 30
0.0
 11
127.0385372588576
 21
580.9043545878694
 31
0.0
  0
LINE
  5
EC
330
1F
100
AcDbEntity
  8
1
  6
Continuous
 62
     7
370
     9
100
AcDbLine
 10
115.378283221013
 20
480.9043545878694
 30
0.0
 11
116.7180291831687
 21
475.9043545878694
 31
0.0
  0
LINE
  5
ED
330
1F
100
AcDbEntity
  8
1
  6
Continuous
 62
     7
370
     9
100
AcDbLine
 10
128.378283221013
 20
480.9043545878695
 30
0.0
 11
127.0385372588574
 21
475.9043545878694
 31
0.0
  0
LINE
  5
EE
330
1F
100
AcDbEntity
  8
1
  6
Continuous
 62
     7
370
     9
100
AcDbLine
 10
116.7180291831688
 20
475.9043545878694
 30
0.0
 11
127.0385372588576
 21
475.9043545878694
 31
0.0
  0
LINE
  5
EF
330
1F
100
AcDbEntity
  8
1
  6
Continuous
 62
     7
370
     9
100
AcDbLine
 10
129.7699606336552
 20
484.0883415600639
 30
0.0
 11
129.7699606336552
 21
572.720367615675
 31
0.0
  0
LINE
  5
F0
330
1F
100
AcDbEntity
  8
1
  6
Continuous
 62
     7
370
     9
100
AcDbLine
 10
129.5038748510801
 20
574.2294150768521
 30
0.0
 11
129.3470483495424
 21
574.2343159237295
 31
0.0
  0
LINE
  5
F1
330
1F
100
AcDbEntity
  8
1
  6
Continuous
 62
     7
370
     9
100
AcDbLine
 10
81.37828322101313
 20
487.0043545878694
 30
0.0
 11
83.33647603792849
 21
485.046161770954
 31
0.0
  0
LINE
  5
F2
330
1F
100
AcDbEntity
  8
1
  6
Continuous
 62
     7
370
     9
100
AcDbLine
 10
116.7180291831687
 20
506.0436748128715
 30
0.0
 11
116.7180291831687
 21
498.4484877956075
 31
0.0
  0
LINE
  5
F3
330
1F
100
AcDbEntity
  8
1
  6
Continuous
 62
     7
370
     9
100
AcDbLine
 10
116.7180291831688
 20
550.7650343628674
 30
0.0
 11
127.0385372588574
 21
550.7650343628674
 31
0.0
  0
LINE
  5
F4
330
1F
100
AcDbEntity
  8
1
  6
Continuous
 62
     7
370
     9
100
AcDbLine
 10
116.7180291831687
 20
550.7650343628674
 30
0.0
 11
116.7180291831687
 21
558.3602213801313
 31
0.0
  0
LINE
  5
F5
330
1F
100
AcDbEntity
  8
1
  6
Continuous
 62
     7
370
     9
100
AcDbLine
 10
127.0385372588574
 20
506.0436748128715
 30
0.0
 11
127.0385372588574
 21
498.4484877956075
 31
0.0
  0
LINE
  5
F6
330
1F
100
AcDbEntity
  8
1
  6
Continuous
 62
     7
370
     9
100
AcDbLine
 10
116.7180291831688
 20
558.3602213801313
 30
0.0
 11
127.0385372588574
 21
558.3602213801313
 31
0.0
  0
LINE
  5
F7
330
1F
100
AcDbEntity
  8
1
  6
Continuous
 62
     7
370
     9
100
AcDbLine
 10
160.4200904040977
 20
571.7625474047848
 30
0.0
 11
160.4200904040977
 21
485.0461617709541
 31
0.0
  0
LINE
  5
F8
330
1F
100
AcDbEntity
  8
1
  6
Continuous
 62
     7
370
     9
100
AcDbLine
 10
81.37828322101313
 20
569.8043545878694
 30
0.0
 11
81.37828322101313
 21
487.0043545878694
 31
0.0
  0
LINE
  5
F9
330
1F
100
AcDbEntity
  8
1
  6
Continuous
 62
     7
370
     9
100
AcDbLine
 10
161.9468126783618
 20
570.2358251305208
 30
0.0
 11
132.4782832210132
 21
571.1567168408116
 31
0.0
  0
LINE
  5
FA
330
1F
100
AcDbEntity
  8
1
  6
Continuous
 62
     7
370
     9
100
AcDbLine
 10
160.4200904040978
 20
571.7625474047849
 30
0.0
 11
129.7699606336552
 21
572.720367615675
 31
0.0
  0
LINE
  5
FB
330
1F
100
AcDbEntity
  8
1
  6
Continuous
 62
     7
370
     9
100
AcDbLine
 10
129.7699606336553
 20
484.0883415600639
 30
0.0
 11
132.4782832210132
 21
485.6519923349273
 31
0.0
  0
LINE
  5
FC
330
1F
100
AcDbEntity
  8
1
  6
Continuous
 62
     7
370
     9
100
AcDbLine
 10
160.4200904040978
 20
485.046161770954
 30
0.0
 11
129.7699606336552
 21
484.0883415600639
 31
0.0
  0
LINE
  5
FD
330
1F
100
AcDbEntity
  8
1
  6
Continuous
 62
     7
370
     9
100
AcDbLine
 10
132.4782832210132
 20
484.1729769639336
 30
0.0
 11
132.4782832210132
 21
572.6357322118051
 31
0.0
  0
LINE
  5
FE
330
1F
100
AcDbEntity
  8
1
  6
Continuous
 62
     7
370
     9
100
AcDbLine
 10
129.7699606336552
 20
572.720367615675
 30
0.0
 11
132.4782832210132
 21
571.1567168408114
 31
0.0
  0
LINE
  5
FF
330
1F
100
AcDbEntity
  8
1
  6
Continuous
 62
     7
370
     9
100
AcDbLine
 10
129.7699606336553
 20
484.0883415600638
 30
0.0
 11
129.5038748510801
 21
482.5792940988867
 31
0.0
  0
LINE
  5
100
330
1F
100
AcDbEntity
  8
1
  6
Continuous
 62
     7
370
     9
100
AcDbLine
 10
129.7699606336553
 20
572.720367615675
 30
0.0
 11
129.5038748510801
 21
574.2294150768521
 31
0.0
  0
LINE
  5
101
330
1F
100
AcDbEntity
  8
1
  6
Continuous
 62
     7
370
     9
100
AcDbLine
 10
81.37828322101302
 20
569.8043545878694
 30
0.0
 11
83.33647603792849
 21
571.7625474047848
 31
0.0
  0
LINE
  5
102
330
1F
100
AcDbEntity
  8
1
  6
Continuous
 62
     7
370
     9
100
AcDbLine
 10
81.80975376366439
 20
486.5728840452181
 30
0.0
 11
111.2782832210131
 21
485.6519923349273
 31
0.0
  0
LINE
  5
103
330
1F
100
AcDbEntity
  8
1
  6
Continuous
 62
     7
370
     9
100
AcDbLine
 10
81.37828322101302
 20
487.0043545878694
 30
0.0
 11
83.33647603792849
 21
485.0461617709541
 31
0.0
  0
LINE
  5
104
330
1F
100
AcDbEntity
  8
1
  6
Continuous
 62
     7
370
     9
100
AcDbLine
 10
113.986605808371
 20
484.0883415600639
 30
0.0
 11
113.986605808371
 21
572.720367615675
 31
0.0
  0
LINE
  5
105
330
1F
100
AcDbEntity
  8
1
  6
Continuous
 62
     7
370
     9
100
AcDbLine
 10
83.33647603792849
 20
571.7625474047848
 30
0.0
 11
83.33647603792849
 21
485.0461617709541
 31
0.0
  0
LINE
  5
106
330
1F
100
AcDbEntity
  8
1
  6
Continuous
 62
     7
370
     9
100
AcDbLine
 10
81.80975376366439
 20
570.2358251305208
 30
0.0
 11
111.2782832210131
 21
571.1567168408116
 31
0.0
  0
LINE
  5
107
330
1F
100
AcDbEntity
  8
1
  6
Continuous
 62
     7
370
     9
100
AcDbLine
 10
83.33647603792849
 20
571.7625474047849
 30
0.0
 11
113.986605808371
 21
572.7203676156751
 31
0.0
  0
LINE
  5
108
330
1F
100
AcDbEntity
  8
1
  6
Continuous
 62
     7
370
     9
100
AcDbLine
 10
113.986605808371
 20
484.0883415600639
 30
0.0
 11
111.278283221013
 21
485.6519923349273
 31
0.0
  0
LINE
  5
109
330
1F
100
AcDbEntity
  8
1
  6
Continuous
 62
     7
370
     9
100
AcDbLine
 10
83.33647603792849
 20
485.046161770954
 30
0.0
 11
113.986605808371
 21
484.0883415600639
 31
0.0
  0
LINE
  5
10A
330
1F
100
AcDbEntity
  8
1
  6
Continuous
 62
     7
370
     9
100
AcDbLine
 10
111.2782832210131
 20
484.1729769639336
 30
0.0
 11
111.2782832210131
 21
572.6357322118052
 31
0.0
  0
LINE
  5
10B
330
1F
100
AcDbEntity
  8
1
  6
Continuous
 62
     7
370
     9
100
AcDbLine
 10
113.986605808371
 20
572.720367615675
 30
0.0
 11
111.2782832210131
 21
571.1567168408114
 31
0.0
  0
LINE
  5
10C
330
1F
100
AcDbEntity
  8
1
  6
Continuous
 62
     7
370
     9
100
AcDbLine
 10
113.986605808371
 20
484.0883415600638
 30
0.0
 11
114.2526915909461
 21
482.5792940988868
 31
0.0
  0
LINE
  5
10D
330
1F
100
AcDbEntity
  8
1
  6
Continuous
 62
     7
370
     9
100
AcDbLine
 10
113.986605808371
 20
572.720367615675
 30
0.0
 11
114.2526915909461
 21
574.2294150768521
 31
0.0
  0
LINE
  5
10E
330
1F
100
AcDbEntity
  8
1
  6
Continuous
 62
     7
370
     9
100
AcDbLine
 10
127.0385372588574
 20
550.7650343628674
 30
0.0
 11
127.0385372588574
 21
558.3602213801313
 31
0.0
  0
ARC
  5
10F
330
1F
100
AcDbEntity
  8
1
  6
Continuous
 62
     7
370
     9
100
AcDbCircle
 10
114.3782832210131
 20
481.574881179644
 30
0.0
 40
1.0
100
AcDbArc
 50
0.0
 51
88.21008256489779
  0
ARC
  5
110
330
1F
100
AcDbEntity
  8
1
  6
Continuous
 62
     7
370
     9
100
AcDbCircle
 10
80.28916468474779
 20
569.6322879840004
 30
0.0
 40
48.08911853626533
100
AcDbArc
 50
346.4437704434034
 51
13.55622955659666
  0
ARC
  5
111
330
1F
100
AcDbEntity
  8
1
  6
Continuous
 62
     7
370
     9
100
AcDbCircle
 10
114.3782832210131
 20
575.2338279960949
 30
0.0
 40
1.0
100
AcDbArc
 50
271.7899174351019
 51
0.0
  0
ARC
  5
112
330
1F
100
AcDbEntity
  8
1
  6
Continuous
 62
     7
370
     9
100
AcDbCircle
 10
-58.89413013850128
 20
528.4043545878694
 30
0.0
 40
187.2724133595145
100
AcDbArc
 50
0.0000000000006956
 51
6.857585119946953
  0
ARC
  5
113
330
1F
100
AcDbEntity
  8
1
  6
Continuous
 62
     7
370
     9
100
AcDbCircle
 10
-58.89413013850128
 20
528.4043545878694
 30
0.0
 40
187.2724133595145
100
AcDbArc
 50
353.1424148800534
 51
0.0000000000000696
  0
ARC
  5
114
330
1F
100
AcDbEntity
  8
1
  6
Continuous
 62
     7
370
     9
100
AcDbCircle
 10
80.28916468474779
 20
487.1764211917385
 30
0.0
 40
48.08911853626533
100
AcDbArc
 50
346.4437704434037
 51
13.55622955659672
  0
ARC
  5
115
330
1F
100
AcDbEntity
  8
1
  6
Continuous
 62
     7
370
     9
100
AcDbCircle
 10
163.4674017572784
 20
487.1764211917385
 30
0.0
 40
48.08911853626533
100
AcDbArc
 50
166.4437704434033
 51
193.5562295565971
  0
ARC
  5
116
330
1F
100
AcDbEntity
  8
1
  6
Continuous
 62
     7
370
     9
100
AcDbCircle
 10
302.6506965805276
 20
528.4043545878694
 30
0.0
 40
187.2724133595145
100
AcDbArc
 50
180.0000000000004
 51
186.8575851199473
  0
ARC
  5
117
330
1F
100
AcDbEntity
  8
1
  6
Continuous
 62
     7
370
     9
100
AcDbCircle
 10
129.3782832210131
 20
481.574881179644
 30
0.0
 40
1.0
100
AcDbArc
 50
91.78991743510221
 51
179.9999999999998
  0
ARC
  5
118
330
1F
100
AcDbEntity
  8
1
  6
Continuous
 62
     7
370
     9
100
AcDbCircle
 10
302.6506965805276
 20
528.4043545878694
 30
0.0
 40
187.2724133595145
100
AcDbArc
 50
173.142414880053
 51
179.9999999999998
  0
ARC
  5
119
330
1F
100
AcDbEntity
  8
1
  6
Continuous
 62
     7
370
     9
100
AcDbCircle
 10
129.3782832210131
 20
575.2338279960949
 30
0.0
 40
1.0
100
AcDbArc
 50
179.9999999999998
 51
268.2100825648974
  0
ARC
  5
11A
330
1F
100
AcDbEntity
  8
1
  6
Continuous
 62
     7
370
     9
100
AcDbCircle
 10
163.4674017572784
 20
569.6322879840004
 30
0.0
 40
48.08911853626533
100
AcDbArc
 50
166.4437704434033
 51
193.5562295565971
  0
LINE
  5
11B
330
1F
100
AcDbEntity
  8
1
  6
Continuous
 62
     7
370
     9
100
AcDbLine
 10
235.4931999520503
 20
476.0878080206096
 30
0.0
 11
196.7633664899761
 21
498.4484877956075
 31
0.0
  0
LINE
  5
11C
330
1F
100
AcDbEntity
  8
1
  6
Continuous
 62
     7
370
     9
100
AcDbLine
 10
282.9931999520503
 20
558.3602213801313
 30
0.0
 11
244.2633664899761
 21
580.7209011551292
 31
0.0
  0
LINE
  5
11D
330
1F
100
AcDbEntity
  8
1
  6
Continuous
 62
     7
370
     9
100
AcDbLine
 10
244.263366489976
 20
476.0878080206097
 30
0.0
 11
282.9931999520503
 21
498.4484877956075
 31
0.0
  0
LINE
  5
11E
330
1F
100
AcDbEntity
  8
1
  6
Continuous
 62
     7
370
     9
100
AcDbLine
 10
196.763366489976
 20
558.3602213801313
 30
0.0
 11
235.4931999520502
 21
580.7209011551292
 31
0.0
  0
LINE
  5
11F
330
1F
100
AcDbEntity
  8
1
  6
Continuous
 62
     7
370
     9
100
AcDbLine
 10
287.3782832210131
 20
550.7650343628674
 30
0.0
 11
287.3782832210131
 21
506.0436748128715
 31
0.0
  0
LINE
  5
120
330
1F
100
AcDbEntity
  8
1
  6
Continuous
 62
     7
370
     9
100
AcDbLine
 10
192.3782832210131
 20
550.7650343628674
 30
0.0
 11
192.3782832210131
 21
506.0436748128715
 31
0.0
  0
ARC
  5
121
330
1F
100
AcDbEntity
  8
1
  6
Continuous
 62
     7
370
     9
100
AcDbCircle
 10
239.8782832210131
 20
528.4043545878694
 30
0.0
 40
52.5
100
AcDbArc
 50
145.2087652967584
 51
154.7912347032416
  0
ARC
  5
122
330
1F
100
AcDbEntity
  8
1
  6
Continuous
 62
     7
370
     9
100
AcDbCircle
 10
239.8782832210131
 20
528.4043545878694
 30
0.0
 40
52.5
100
AcDbArc
 50
205.2087652967588
 51
214.7912347032419
  0
ARC
  5
123
330
1F
100
AcDbEntity
  8
1
  6
Continuous
 62
     7
370
     9
100
AcDbCircle
 10
239.8782832210131
 20
528.4043545878694
 30
0.0
 40
52.5
100
AcDbArc
 50
325.2087652967587
 51
334.7912347032419
  0
ARC
  5
124
330
1F
100
AcDbEntity
  8
1
  6
Continuous
 62
     7
370
     9
100
AcDbCircle
 10
239.8782832210131
 20
528.4043545878694
 30
0.0
 40
52.5
100
AcDbArc
 50
85.20876529675847
 51
94.79123470324156
  0
ARC
  5
125
330
1F
100
AcDbEntity
  8
1
  6
Continuous
 62
     7
370
     9
100
AcDbCircle
 10
239.8782832210131
 20
528.4043545878694
 30
0.0
 40
52.5
100
AcDbArc
 50
25.20876529675841
 51
34.79123470324164
  0
CIRCLE
  5
126
330
1F
100
AcDbEntity
  8
1
  6
Continuous
 62
     7
370
     9
100
AcDbCircle
 10
239.8782832210131
 20
528.4043545878694
 30
0.0
 40
39.0
  0
CIRCLE
  5
127
330
1F
100
AcDbEntity
  8
1
  6
Continuous
 62
     7
370
     9
100
AcDbCircle
 10
239.8782832210131
 20
528.4043545878694
 30
0.0
 40
41.40000000000001
  0
CIRCLE
  5
128
330
1F
100
AcDbEntity
  8
1
  6
Continuous
 62
     7
370
     9
100
AcDbCircle
 10
239.8782832210131
 20
528.4043545878694
 30
0.0
 40
38.0
  0
ARC
  5
129
330
1F
100
AcDbEntity
  8
1
  6
Continuous
 62
     7
370
     9
100
AcDbCircle
 10
239.8782832210131
 20
528.4043545878694
 30
0.0
 40
52.5
100
AcDbArc
 50
265.2087652967587
 51
274.7912347032419
  0
CIRCLE
  5
12A
330
1F
100
AcDbEntity
  8
1
  6
Continuous
 62
     7
370
     9
100
AcDbCircle
 10
239.8782832210131
 20
528.4043545878694
 30
0.0
 40
47.5
  0
CIRCLE
  5
12B
330
1F
100
AcDbEntity
  8
1
  6
Continuous
 62
     7
370
     9
100
AcDbCircle
 10
239.8782832210131
 20
528.4043545878694
 30
0.0
 40
43.94200000000001
  0
CIRCLE
  5
12C
330
1F
100
AcDbEntity
  8
1
  6
Continuous
 62
     7
370
     9
100
AcDbCircle
 10
239.8782832210131
 20
528.4043545878694
 30
0.0
 40
42.46299999999999
  0
LINE
  5
12D
330
1F
100
AcDbEntity
  8
1
  6
Continuous
 62
     7
370
     9
100
AcDbLine
 10
103.5165256730952
 20
271.6967952023833
 30
0.0
 11
95.12422082768194
 21
271.6967952023833
 31
0.0
  0
LINE
  5
12E
330
1F
100
AcDbEntity
  8
1
  6
Continuous
 62
     7
370
     9
100
AcDbLine
 10
127.3203732503886
 20
302.4711508553655
 30
0.0
 11
125.350713129218
 21
304.4408109765361
 31
0.0
  0
LINE
  5
12F
330
1F
100
AcDbEntity
  8
1
  6
Continuous
 62
     7
370
     9
100
AcDbLine
 10
103.5165256730952
 20
295.9455065083476
 30
0.0
 11
95.12422082768194
 21
295.9455065083476
 31
0.0
  0
LINE
  5
130
330
1F
100
AcDbEntity
  8
1
  6
Continuous
 62
     7
370
     9
100
AcDbLine
 10
104.3203732503886
 20
306.8211508553654
 30
0.0
 11
104.3203732503886
 21
306.3957818835909
 31
0.0
  0
LINE
  5
131
330
1F
100
AcDbEntity
  8
1
  6
Continuous
 62
     7
370
     9
100
AcDbLine
 10
104.3203732503886
 20
306.8211508553654
 30
0.0
 11
103.5165256730952
 21
309.8211508553654
 31
0.0
  0
LINE
  5
132
330
1F
100
AcDbEntity
  8
1
  6
Continuous
 62
     7
370
     9
100
AcDbLine
 10
93.22023338380706
 20
305.0636608519943
 30
0.0
 11
93.698772104934
 21
305.8925142303751
 31
0.0
  0
LINE
  5
133
330
1F
100
AcDbEntity
  8
1
  6
Continuous
 62
     7
370
     9
100
AcDbLine
 10
104.3203732503886
 20
260.8211508553654
 30
0.0
 11
103.6505002693108
 21
258.3211508553655
 31
0.0
  0
LINE
  5
134
330
1F
100
AcDbEntity
  8
1
  6
Continuous
 62
     7
370
     9
100
AcDbLine
 10
94.32037325038857
 20
260.8211508553656
 30
0.0
 11
94.32037325038857
 21
306.8211508553654
 31
0.0
  0
LINE
  5
135
330
1F
100
AcDbEntity
  8
1
  6
Continuous
 62
     7
370
     9
100
AcDbLine
 10
94.32037325038857
 20
260.8211508553654
 30
0.0
 11
94.99024623146641
 21
258.3211508553654
 31
0.0
  0
LINE
  5
136
330
1F
100
AcDbEntity
  8
1
  6
Continuous
 62
     7
370
     9
100
AcDbLine
 10
94.32037325038863
 20
306.8211508553655
 30
0.0
 11
95.124220827682
 21
309.8211508553654
 31
0.0
  0
LINE
  5
137
330
1F
100
AcDbEntity
  8
1
  6
Continuous
 62
     7
370
     9
100
AcDbLine
 10
103.6505002693108
 20
258.3211508553654
 30
0.0
 11
94.99024623146641
 21
258.3211508553654
 31
0.0
  0
LINE
  5
138
330
1F
100
AcDbEntity
  8
1
  6
Continuous
 62
     7
370
     9
100
AcDbLine
 10
105.4205131169701
 20
262.6661408604591
 30
0.0
 11
105.4205131169701
 21
305.0636608519943
 31
0.0
  0
LINE
  5
139
330
1F
100
AcDbEntity
  8
1
  6
Continuous
 62
     7
370
     9
100
AcDbLine
 10
127.3203732503886
 20
302.4711508553655
 30
0.0
 11
127.3203732503886
 21
265.1711508553654
 31
0.0
  0
LINE
  5
13A
330
1F
100
AcDbEntity
  8
1
  6
Continuous
 62
     7
370
     9
100
AcDbLine
 10
125.350713129218
 20
304.440810976536
 30
0.0
 11
105.4205131169701
 21
305.0636608519943
 31
0.0
  0
LINE
  5
13B
330
1F
100
AcDbEntity
  8
1
  6
Continuous
 62
     7
370
     9
100
AcDbLine
 10
105.4205131169701
 20
305.0636608519943
 30
0.0
 11
104.9419743958431
 21
305.8925142303751
 31
0.0
  0
LINE
  5
13C
330
1F
100
AcDbEntity
  8
1
  6
Continuous
 62
     7
370
     9
100
AcDbLine
 10
125.3507131292179
 20
263.2014907341948
 30
0.0
 11
125.3507131292179
 21
304.440810976536
 31
0.0
  0
LINE
  5
13D
330
1F
100
AcDbEntity
  8
1
  6
Continuous
 62
     7
370
     9
100
AcDbLine
 10
94.32037325038857
 20
306.8211508553654
 30
0.0
 11
94.32037325038857
 21
306.3957818835909
 31
0.0
  0
LINE
  5
13E
330
1F
100
AcDbEntity
  8
1
  6
Continuous
 62
     7
370
     9
100
AcDbLine
 10
71.32037325038857
 20
302.4711508553655
 30
0.0
 11
73.2900333715591
 21
304.440810976536
 31
0.0
  0
LINE
  5
13F
330
1F
100
AcDbEntity
  8
1
  6
Continuous
 62
     7
370
     9
100
AcDbLine
 10
104.3203732503886
 20
260.8211508553654
 30
0.0
 11
104.3203732503886
 21
306.8211508553655
 31
0.0
  0
LINE
  5
140
330
1F
100
AcDbEntity
  8
1
  6
Continuous
 62
     7
370
     9
100
AcDbLine
 10
108.2203732503885
 20
303.4471608502718
 30
0.0
 11
105.4205131169701
 21
305.0636608519943
 31
0.0
  0
LINE
  5
141
330
1F
100
AcDbEntity
  8
1
  6
Continuous
 62
     7
370
     9
100
AcDbLine
 10
73.29003337155916
 20
304.440810976536
 30
0.0
 11
93.22023338380706
 21
305.0636608519943
 31
0.0
  0
LINE
  5
142
330
1F
100
AcDbEntity
  8
1
  6
Continuous
 62
     7
370
     9
100
AcDbLine
 10
73.29003337155922
 20
263.2014907341948
 30
0.0
 11
73.29003337155922
 21
304.440810976536
 31
0.0
  0
LINE
  5
143
330
1F
100
AcDbEntity
  8
1
  6
Continuous
 62
     7
370
     9
100
AcDbLine
 10
103.5165256730952
 20
295.9455065083476
 30
0.0
 11
103.5165256730952
 21
297.6775573159162
 31
0.0
  0
LINE
  5
144
330
1F
100
AcDbEntity
  8
1
  6
Continuous
 62
     7
370
     9
100
AcDbLine
 10
95.12422082768194
 20
295.9455065083476
 30
0.0
 11
95.12422082768194
 21
297.6775573159162
 31
0.0
  0
LINE
  5
145
330
1F
100
AcDbEntity
  8
1
  6
Continuous
 62
     7
370
     9
100
AcDbLine
 10
71.711708246525
 20
302.8624858515018
 30
0.0
 11
90.42037325038865
 21
303.4471608502718
 31
0.0
  0
LINE
  5
146
330
1F
100
AcDbEntity
  8
1
  6
Continuous
 62
     7
370
     9
100
AcDbLine
 10
126.9290382542521
 20
302.8624858515018
 30
0.0
 11
108.2203732503885
 21
303.4471608502718
 31
0.0
  0
LINE
  5
147
330
1F
100
AcDbEntity
  8
1
  6
Continuous
 62
     7
370
     9
100
AcDbLine
 10
126.9290382542521
 20
264.779815859229
 30
0.0
 11
108.2203732503885
 21
264.195140860459
 31
0.0
  0
LINE
  5
148
330
1F
100
AcDbEntity
  8
1
  6
Continuous
 62
     7
370
     9
100
AcDbLine
 10
103.5165256730952
 20
269.9647443948147
 30
0.0
 11
95.12422082768194
 21
269.9647443948147
 31
0.0
  0
LINE
  5
149
330
1F
100
AcDbEntity
  8
1
  6
Continuous
 62
     7
370
     9
100
AcDbLine
 10
95.12422082768194
 20
271.6967952023833
 30
0.0
 11
95.12422082768194
 21
269.9647443948147
 31
0.0
  0
LINE
  5
14A
330
1F
100
AcDbEntity
  8
1
  6
Continuous
 62
     7
370
     9
100
AcDbLine
 10
103.5165256730952
 20
271.6967952023833
 30
0.0
 11
103.5165256730952
 21
269.9647443948147
 31
0.0
  0
LINE
  5
14B
330
1F
100
AcDbEntity
  8
1
  6
Continuous
 62
     7
370
     9
100
AcDbLine
 10
71.711708246525
 20
264.779815859229
 30
0.0
 11
90.42037325038865
 21
264.195140860459
 31
0.0
  0
LINE
  5
14C
330
1F
100
AcDbEntity
  8
1
  6
Continuous
 62
     7
370
     9
100
AcDbLine
 10
71.32037325038863
 20
265.1711508553654
 30
0.0
 11
73.29003337155922
 21
263.2014907341948
 31
0.0
  0
LINE
  5
14D
330
1F
100
AcDbEntity
  8
1
  6
Continuous
 62
     7
370
     9
100
AcDbLine
 10
93.698772104934
 20
261.7497874803557
 30
0.0
 11
93.83313504894085
 21
261.7463569371045
 31
0.0
  0
LINE
  5
14E
330
1F
100
AcDbEntity
  8
1
  6
Continuous
 62
     7
370
     9
100
AcDbLine
 10
71.32037325038857
 20
302.4711508553655
 30
0.0
 11
71.32037325038857
 21
265.1711508553654
 31
0.0
  0
LINE
  5
14F
330
1F
100
AcDbEntity
  8
1
  6
Continuous
 62
     7
370
     9
100
AcDbLine
 10
93.698772104934
 20
305.8925142303751
 30
0.0
 11
93.83313504894085
 21
305.8959447736264
 31
0.0
  0
LINE
  5
150
330
1F
100
AcDbEntity
  8
1
  6
Continuous
 62
     7
370
     9
100
AcDbLine
 10
90.4203732503886
 20
262.6661408604591
 30
0.0
 11
90.4203732503886
 21
304.9761608502718
 31
0.0
  0
LINE
  5
151
330
1F
100
AcDbEntity
  8
1
  6
Continuous
 62
     7
370
     9
100
AcDbLine
 10
104.9419743958431
 20
305.8925142303752
 30
0.0
 11
104.8076114518363
 21
305.8959447736264
 31
0.0
  0
LINE
  5
152
330
1F
100
AcDbEntity
  8
1
  6
Continuous
 62
     7
370
     9
100
AcDbLine
 10
127.3203732503885
 20
265.1711508553654
 30
0.0
 11
125.3507131292179
 21
263.2014907341949
 31
0.0
  0
LINE
  5
153
330
1F
100
AcDbEntity
  8
1
  6
Continuous
 62
     7
370
     9
100
AcDbLine
 10
125.350713129218
 20
263.2014907341949
 30
0.0
 11
105.4205131169701
 21
262.5786408587366
 31
0.0
  0
LINE
  5
154
330
1F
100
AcDbEntity
  8
1
  6
Continuous
 62
     7
370
     9
100
AcDbLine
 10
105.4205131169701
 20
262.5786408587366
 30
0.0
 11
104.9419743958431
 21
261.7497874803557
 31
0.0
  0
LINE
  5
155
330
1F
100
AcDbEntity
  8
1
  6
Continuous
 62
     7
370
     9
100
AcDbLine
 10
73.29003337155916
 20
263.2014907341948
 30
0.0
 11
93.220233383807
 21
262.5786408587366
 31
0.0
  0
LINE
  5
156
330
1F
100
AcDbEntity
  8
1
  6
Continuous
 62
     7
370
     9
100
AcDbLine
 10
108.2203732503885
 20
262.6661408604591
 30
0.0
 11
108.2203732503885
 21
304.9761608502718
 31
0.0
  0
LINE
  5
157
330
1F
100
AcDbEntity
  8
1
  6
Continuous
 62
     7
370
     9
100
AcDbLine
 10
104.9419743958432
 20
261.7497874803557
 30
0.0
 11
104.8076114518363
 21
261.7463569371045
 31
0.0
  0
LINE
  5
158
330
1F
100
AcDbEntity
  8
1
  6
Continuous
 62
     7
370
     9
100
AcDbLine
 10
93.220233383807
 20
262.6661408604591
 30
0.0
 11
93.220233383807
 21
305.0636608519943
 31
0.0
  0
LINE
  5
159
330
1F
100
AcDbEntity
  8
1
  6
Continuous
 62
     7
370
     9
100
AcDbLine
 10
103.5165256730952
 20
297.6775573159162
 30
0.0
 11
95.12422082768194
 21
297.6775573159162
 31
0.0
  0
LINE
  5
15A
330
1F
100
AcDbEntity
  8
1
  6
Continuous
 62
     7
370
     9
100
AcDbLine
 10
90.4203732503886
 20
303.4471608502718
 30
0.0
 11
93.22023338380706
 21
305.0636608519942
 31
0.0
  0
LINE
  5
15B
330
1F
100
AcDbEntity
  8
1
  6
Continuous
 62
     7
370
     9
100
AcDbLine
 10
108.2203732503885
 20
264.195140860459
 30
0.0
 11
105.4205131169701
 21
262.5786408587366
 31
0.0
  0
LINE
  5
15C
330
1F
100
AcDbEntity
  8
1
  6
Continuous
 62
     7
370
     9
100
AcDbLine
 10
90.4203732503886
 20
264.195140860459
 30
0.0
 11
93.22023338380706
 21
262.5786408587366
 31
0.0
  0
LINE
  5
15D
330
1F
100
AcDbEntity
  8
1
  6
Continuous
 62
     7
370
     9
100
AcDbLine
 10
93.22023338380706
 20
262.5786408587366
 30
0.0
 11
93.698772104934
 21
261.7497874803557
 31
0.0
  0
LINE
  5
15E
330
1F
100
AcDbEntity
  8
1
  6
Continuous
 62
     7
370
     9
100
AcDbLine
 10
95.124220827682
 20
309.8211508553654
 30
0.0
 11
103.5165256730952
 21
309.8211508553654
 31
0.0
  0
LINE
  5
15F
330
1F
100
AcDbEntity
  8
1
  6
Continuous
 62
     7
370
     9
100
AcDbLine
 10
93.7080386397659
 20
261.7337373712168
 30
0.0
 11
93.7080386397659
 21
305.9085643395141
 31
0.0
  0
LINE
  5
160
330
1F
100
AcDbEntity
  8
1
  6
Continuous
 62
     7
370
     9
100
AcDbLine
 10
104.9419743958431
 20
261.7497874803557
 30
0.0
 11
104.9419743958431
 21
305.9107940884619
 31
0.0
  0
ARC
  5
161
330
1F
100
AcDbEntity
  8
1
  6
Continuous
 62
     7
370
     9
100
AcDbCircle
 10
80.98703991705469
 20
303.7493540856408
 30
0.0
 40
23.33333333333386
100
AcDbArc
 50
344.916891652418
 51
13.8152123133416
  0
ARC
  5
162
330
1F
100
AcDbEntity
  8
1
  6
Continuous
 62
     7
370
     9
100
AcDbCircle
 10
12.48320467630543
 20
283.8211508553654
 30
0.0
 40
91.83716857408311
100
AcDbArc
 50
0.0
 51
7.586343987386178
  0
ARC
  5
163
330
1F
100
AcDbEntity
  8
1
  6
Continuous
 62
     7
370
     9
100
AcDbCircle
 10
12.48320467630543
 20
283.8211508553654
 30
0.0
 40
91.83716857408311
100
AcDbArc
 50
352.4136560126142
 51
359.9999999999996
  0
ARC
  5
164
330
1F
100
AcDbEntity
  8
1
  6
Continuous
 62
     7
370
     9
100
AcDbCircle
 10
186.1575418244717
 20
283.8211508553654
 30
0.0
 40
91.83716857408311
100
AcDbArc
 50
179.9999999999999
 51
187.5863439873865
  0
ARC
  5
165
330
1F
100
AcDbEntity
  8
1
  6
Continuous
 62
     7
370
     9
100
AcDbCircle
 10
117.6537065837225
 20
263.89294762509
 30
0.0
 40
23.33333333333386
100
AcDbArc
 50
164.9168916524178
 51
193.8152123133419
  0
ARC
  5
166
330
1F
100
AcDbEntity
  8
1
  6
Continuous
 62
     7
370
     9
100
AcDbCircle
 10
80.98703991705469
 20
263.89294762509
 30
0.0
 40
23.33333333333386
100
AcDbArc
 50
346.1847876866588
 51
15.08310834758225
  0
ARC
  5
167
330
1F
100
AcDbEntity
  8
1
  6
Continuous
 62
     7
370
     9
100
AcDbCircle
 10
104.8203732503886
 20
261.2465198271399
 30
0.0
 40
0.5
100
AcDbArc
 50
91.46255321909662
 51
179.9999999999998
  0
ARC
  5
168
330
1F
100
AcDbEntity
  8
1
  6
Continuous
 62
     7
370
     9
100
AcDbCircle
 10
186.1575418244717
 20
283.8211508553654
 30
0.0
 40
91.83716857408311
100
AcDbArc
 50
172.4136560126139
 51
180.0000000000004
  0
ARC
  5
169
330
1F
100
AcDbEntity
  8
1
  6
Continuous
 62
     7
370
     9
100
AcDbCircle
 10
117.6537065837225
 20
303.7493540856408
 30
0.0
 40
23.33333333333386
100
AcDbArc
 50
166.1847876866584
 51
195.0831083475826
  0
ARC
  5
16A
330
1F
100
AcDbEntity
  8
1
  6
Continuous
 62
     7
370
     9
100
AcDbCircle
 10
93.82037325038857
 20
306.3957818835909
 30
0.0
 40
0.5
100
AcDbArc
 50
271.4625532190963
 51
0.0
  0
ARC
  5
16B
330
1F
100
AcDbEntity
  8
1
  6
Continuous
 62
     7
370
     9
100
AcDbCircle
 10
104.8203732503886
 20
306.3957818835909
 30
0.0
 40
0.5
100
AcDbArc
 50
179.9999999999998
 51
268.5374467809031
  0
ARC
  5
16C
330
1F
100
AcDbEntity
  8
1
  6
Continuous
 62
     7
370
     9
100
AcDbCircle
 10
93.82037325038857
 20
261.2465198271399
 30
0.0
 40
0.5
100
AcDbArc
 50
0.0
 51
88.5374467809034
  0
LINE
  5
16D
330
1F
100
AcDbEntity
  8
1
  6
Continuous
 62
     7
370
     9
100
AcDbLine
 10
193.3203732503886
 20
295.9455065083476
 30
0.0
 11
193.3203732503886
 21
271.6967952023833
 31
0.0
  0
LINE
  5
16E
330
1F
100
AcDbEntity
  8
1
  6
Continuous
 62
     7
370
     9
100
AcDbLine
 10
192.3203732503886
 20
297.6775573159165
 30
0.0
 11
171.3203732503886
 21
309.8019129688986
 31
0.0
  0
LINE
  5
16F
330
1F
100
AcDbEntity
  8
1
  6
Continuous
 62
     7
370
     9
100
AcDbLine
 10
171.3203732503882
 20
257.8403887418323
 30
0.0
 11
192.3203732503887
 21
269.9647443948147
 31
0.0
  0
LINE
  5
170
330
1F
100
AcDbEntity
  8
1
  6
Continuous
 62
     7
370
     9
100
AcDbLine
 10
169.3203732503889
 20
257.8403887418322
 30
0.0
 11
148.3203732503884
 21
269.9647443948147
 31
0.0
  0
LINE
  5
171
330
1F
100
AcDbEntity
  8
1
  6
Continuous
 62
     7
370
     9
100
AcDbLine
 10
147.3203732503886
 20
295.9455065083476
 30
0.0
 11
147.3203732503886
 21
271.6967952023833
 31
0.0
  0
LINE
  5
172
330
1F
100
AcDbEntity
  8
1
  6
Continuous
 62
     7
370
     9
100
AcDbLine
 10
148.3203732503886
 20
297.6775573159165
 30
0.0
 11
169.3203732503886
 21
309.8019129688986
 31
0.0
  0
CIRCLE
  5
173
330
1F
100
AcDbEntity
  8
1
  6
Continuous
 62
     7
370
     9
100
AcDbCircle
 10
170.3203732503886
 20
283.8211508553654
 30
0.0
 40
16.75
  0
CIRCLE
  5
174
330
1F
100
AcDbEntity
  8
1
  6
Continuous
 62
     7
370
     9
100
AcDbCircle
 10
170.3203732503886
 20
283.8211508553654
 30
0.0
 40
22.10000000000002
  0
CIRCLE
  5
175
330
1F
100
AcDbEntity
  8
1
  6
Continuous
 62
     7
370
     9
100
AcDbCircle
 10
170.3203732503886
 20
283.8211508553654
 30
0.0
 40
17.25
  0
CIRCLE
  5
176
330
1F
100
AcDbEntity
  8
1
  6
Continuous
 62
     7
370
     9
100
AcDbCircle
 10
170.3203732503886
 20
283.8211508553654
 30
0.0
 40
18.65000000000001
  0
ARC
  5
177
330
1F
100
AcDbEntity
  8
1
  6
Continuous
 62
     7
370
     9
100
AcDbCircle
 10
170.3203732503886
 20
283.8211508553654
 30
0.0
 40
22.99999999999983
100
AcDbArc
 50
180.0000000000004
 51
0.0
  0
ARC
  5
178
330
1F
100
AcDbEntity
  8
1
  6
Continuous
 62
     7
370
     9
100
AcDbCircle
 10
170.3203732503886
 20
283.8211508553654
 30
0.0
 40
22.99999999999983
100
AcDbArc
 50
0.0
 51
179.9999999999998
  0
ARC
  5
179
330
1F
100
AcDbEntity
  8
1
  6
Continuous
 62
     7
370
     9
100
AcDbCircle
 10
170.3203732503886
 20
283.8211508553654
 30
0.0
 40
26.0
100
AcDbArc
 50
207.7957724960283
 51
212.2042275039717
  0
ARC
  5
17A
330
1F
100
AcDbEntity
  8
1
  6
Continuous
 62
     7
370
     9
100
AcDbCircle
 10
170.3203732503886
 20
283.8211508553654
 30
0.0
 40
26.0
100
AcDbArc
 50
147.7957724960279
 51
152.2042275039721
  0
ARC
  5
17B
330
1F
100
AcDbEntity
  8
1
  6
Continuous
 62
     7
370
     9
100
AcDbCircle
 10
170.3203732503886
 20
283.8211508553654
 30
0.0
 40
26.0
100
AcDbArc
 50
87.79577249602784
 51
92.20422750397215
  0
ARC
  5
17C
330
1F
100
AcDbEntity
  8
1
  6
Continuous
 62
     7
370
     9
100
AcDbCircle
 10
170.3203732503886
 20
283.8211508553654
 30
0.0
 40
26.0
100
AcDbArc
 50
27.79577249602801
 51
32.20422750397217
  0
ARC
  5
17D
330
1F
100
AcDbEntity
  8
1
  6
Continuous
 62
     7
370
     9
100
AcDbCircle
 10
170.3203732503886
 20
283.8211508553654
 30
0.0
 40
26.0
100
AcDbArc
 50
327.795772496029
 51
332.2042275039723
  0
ARC
  5
17E
330
1F
100
AcDbEntity
  8
1
  6
Continuous
 62
     7
370
     9
100
AcDbCircle
 10
170.3203732503886
 20
283.8211508553654
 30
0.0
 40
26.0
100
AcDbArc
 50
267.795772496029
 51
272.2042275039716
  0
CIRCLE
  5
17F
330
1F
100
AcDbEntity
  8
1
  6
Continuous
 62
     7
370
     9
100
AcDbCircle
 10
170.3203732503886
 20
283.8211508553654
 30
0.0
 40
20.95499999999998
  0
CIRCLE
  5
180
330
1F
100
AcDbEntity
  8
1
  6
Continuous
 62
     7
370
     9
100
AcDbCircle
 10
170.3203732503886
 20
283.8211508553654
 30
0.0
 40
19.476
  0
LINE
  5
181
330
1F
100
AcDbEntity
  8
7
  6
PHANTOM
 62
     4
370
     9
100
AcDbLine
 10
62.03622083981338
 20
84.11128798264316
 30
0.0
 11
62.03622083981338
 21
74.38328798264315
 31
0.0
  0
LINE
  5
182
330
1F
100
AcDbEntity
  8
7
  6
DASHDOT
 62
     4
370
     9
100
AcDbLine
 10
34.00622083981338
 20
79.24728798264316
 30
0.0
 11
70.00622083981338
 21
79.24728798264316
 31
0.0
  0
LINE
  5
183
330
1F
100
AcDbEntity
  8
7
  6
PHANTOM
 62
     4
370
     9
100
AcDbLine
 10
41.97622083981338
 20
84.11128798264316
 30
0.0
 11
41.97622083981338
 21
74.38328798264315
 31
0.0
  0
LINE
  5
184
330
1F
100
AcDbEntity
  8
7
  6
DASHDOT
 62
     4
370
     9
100
AcDbLine
 10
82.00622083981341
 20
79.24728798264312
 30
0.0
 11
102.0062208398134
 21
79.24728798264312
 31
0.0
  0
LINE
  5
185
330
1F
100
AcDbEntity
  8
7
  6
DASHDOT
 62
     4
370
     9
100
AcDbLine
 10
92.00622083981341
 20
67.7002825988506
 30
0.0
 11
92.00622083981341
 21
90.79429336643562
 31
0.0
  0
LINE
  5
186
330
1F
100
AcDbEntity
  8
7
  6
DASHDOT
 62
     4
370
     9
100
AcDbLine
 10
131.3203732503886
 20
283.8211508553654
 30
0.0
 11
67.32037325038857
 21
283.8211508553654
 31
0.0
  0
LINE
  5
187
330
1F
100
AcDbEntity
  8
7
  6
PHANTOM
 62
     4
370
     9
100
AcDbLine
 10
84.02037325038856
 20
304.7761508553654
 30
0.0
 11
84.02037325038856
 21
262.8661508553654
 31
0.0
  0
LINE
  5
188
330
1F
100
AcDbEntity
  8
7
  6
PHANTOM
 62
     4
370
     9
100
AcDbLine
 10
114.6203732503886
 20
304.7761508553654
 30
0.0
 11
114.6203732503886
 21
262.8661508553654
 31
0.0
  0
LINE
  5
189
330
1F
100
AcDbEntity
  8
7
  6
DASHDOT
 62
     4
370
     9
100
AcDbLine
 10
143.3203732503886
 20
283.8211508553654
 30
0.0
 11
197.3203732503886
 21
283.8211508553654
 31
0.0
  0
LINE
  5
18A
330
1F
100
AcDbEntity
  8
7
  6
DASHDOT
 62
     4
370
     9
100
AcDbLine
 10
170.3203732503886
 20
313.8211508553654
 30
0.0
 11
170.3203732503886
 21
253.8211508553654
 31
0.0
  0
LINE
  5
18B
330
1F
100
AcDbEntity
  8
7
  6
DASHDOT
 62
     4
370
     9
100
AcDbLine
 10
166.3782832210131
 20
528.4043545878694
 30
0.0
 11
77.37828322101302
 21
528.4043545878694
 31
0.0
  0
LINE
  5
18C
330
1F
100
AcDbEntity
  8
7
  6
PHANTOM
 62
     4
370
     9
100
AcDbLine
 10
102.0182832210131
 20
572.3463561073884
 30
0.0
 11
102.0182832210131
 21
484.4623530683505
 31
0.0
  0
LINE
  5
18D
330
1F
100
AcDbEntity
  8
7
  6
PHANTOM
 62
     4
370
     9
100
AcDbLine
 10
141.7382832210131
 20
572.3463561073884
 30
0.0
 11
141.7382832210131
 21
484.4623530683505
 31
0.0
  0
LINE
  5
18E
330
1F
100
AcDbEntity
  8
7
  6
DASHDOT
 62
     4
370
     9
100
AcDbLine
 10
188.3782832210131
 20
528.4043545878694
 30
0.0
 11
291.3782832210131
 21
528.4043545878694
 31
0.0
  0
LINE
  5
18F
330
1F
100
AcDbEntity
  8
7
  6
DASHDOT
 62
     4
370
     9
100
AcDbLine
 10
239.8782832210131
 20
584.9043545878694
 30
0.0
 11
239.8782832210131
 21
471.9043545878694
 31
0.0
  0
MTEXT
  5
190
330
1F
100
AcDbEntity
  8
1
  6
Continuous
 62
     7
370
     9
100
AcDbMText
 10
169.7727473455829
 20
430.3967270723865
 30
0.0
 40
20.0
 41
49.33753753753754
 46
20.0
 71
     7
 72
     1
  1
{\fＭＳ 明朝;\T0.750000;80A}
 73
     1
 44
1.0
1001
ACAD
1000
ACAD_MTEXT_DEFINED_HEIGHT_BEGIN
1070
    46
1040
20.0
1000
ACAD_MTEXT_DEFINED_HEIGHT_END
  0
MTEXT
  5
191
330
1F
100
AcDbEntity
  8
1
  6
Continuous
 62
     7
370
     9
100
AcDbMText
 10
530.7618608759096
 20
430.3967270723865
 30
0.0
 40
20.0
 41
61.99529529529529
 46
20.0
 71
     7
 72
     1
  1
{\fＭＳ 明朝;\T0.750000;100A}
 73
     1
 44
1.0
1001
ACAD
1000
ACAD_MTEXT_DEFINED_HEIGHT_BEGIN
1070
    46
1040
20.0
1000
ACAD_MTEXT_DEFINED_HEIGHT_END
  0
MTEXT
  5
192
330
1F
100
AcDbEntity
  8
1
  6
Continuous
 62
     7
370
     9
100
AcDbMText
 10
131.6247431983564
 20
211.5361775648696
 30
0.0
 40
20.0
 41
48.68368368368368
 46
20.0
 71
     7
 72
     1
  1
{\fＭＳ 明朝;\T0.750000;32A}
 73
     1
 44
1.0
1001
ACAD
1000
ACAD_MTEXT_DEFINED_HEIGHT_BEGIN
1070
    46
1040
20.0
1000
ACAD_MTEXT_DEFINED_HEIGHT_END
  0
MTEXT
  5
193
330
1F
100
AcDbEntity
  8
1
  6
Continuous
 62
     7
370
     9
100
AcDbMText
 10
387.9793310677189
 20
211.5361775648696
 30
0.0
 40
20.0
 41
49.67867867867867
 46
20.0
 71
     7
 72
     1
  1
{\fＭＳ 明朝;\T0.750000;40A}
 73
     1
 44
1.0
1001
ACAD
1000
ACAD_MTEXT_DEFINED_HEIGHT_BEGIN
1070
    46
1040
20.0
1000
ACAD_MTEXT_DEFINED_HEIGHT_END
  0
MTEXT
  5
194
330
1F
100
AcDbEntity
  8
1
  6
Continuous
 62
     7
370
     9
100
AcDbMText
 10
669.9112474319838
 20
211.5361775648696
 30
0.0
 40
20.0
 41
48.68368368368368
 46
20.0
 71
     7
 72
     1
  1
{\fＭＳ 明朝;\T0.750000;50A}
 73
     1
 44
1.0
1001
ACAD
1000
ACAD_MTEXT_DEFINED_HEIGHT_BEGIN
1070
    46
1040
20.0
1000
ACAD_MTEXT_DEFINED_HEIGHT_END
  0
MTEXT
  5
195
330
1F
100
AcDbEntity
  8
1
  6
Continuous
 62
     7
370
     9
100
AcDbMText
 10
937.3105907877814
 20
211.5361775648696
 30
0.0
 40
20.0
 41
49.16696696696696
 46
20.0
 71
     7
 72
     1
  1
{\fＭＳ 明朝;\T0.750000;65A}
 73
     1
 44
1.0
1001
ACAD
1000
ACAD_MTEXT_DEFINED_HEIGHT_BEGIN
1070
    46
1040
20.0
1000
ACAD_MTEXT_DEFINED_HEIGHT_END
  0
MTEXT
  5
196
330
1F
100
AcDbEntity
  8
1
  6
Continuous
 62
     7
370
     9
100
AcDbMText
 10
70.1277384175257
 20
39.76116460478656
 30
0.0
 40
20.0
 41
33.58108108108108
 46
20.0
 71
     7
 72
     1
  1
{\fＭＳ 明朝;\T0.750000;6A}
 73
     1
 44
1.0
1001
ACAD
1000
ACAD_MTEXT_DEFINED_HEIGHT_BEGIN
1070
    46
1040
20.0
1000
ACAD_MTEXT_DEFINED_HEIGHT_END
  0
MTEXT
  5
197
330
1F
100
AcDbEntity
  8
1
  6
Continuous
 62
     7
370
     9
100
AcDbMText
 10
199.8228788664246
 20
39.76116460478656
 30
0.0
 40
20.0
 41
33.75165165165165
 46
20.0
 71
     7
 72
     1
  1
{\fＭＳ 明朝;\T0.750000;8A}
 73
     1
 44
1.0
1001
ACAD
1000
ACAD_MTEXT_DEFINED_HEIGHT_BEGIN
1070
    46
1040
20.0
1000
ACAD_MTEXT_DEFINED_HEIGHT_END
  0
MTEXT
  5
198
330
1F
100
AcDbEntity
  8
1
  6
Continuous
 62
     7
370
     9
100
AcDbMText
 10
342.4358619895167
 20
39.76116460478656
 30
0.0
 40
20.0
 41
46.40940940940941
 46
20.0
 71
     7
 72
     1
  1
{\fＭＳ 明朝;\T0.750000;10A}
 73
     1
 44
1.0
1001
ACAD
1000
ACAD_MTEXT_DEFINED_HEIGHT_BEGIN
1070
    46
1040
20.0
1000
ACAD_MTEXT_DEFINED_HEIGHT_END
  0
MTEXT
  5
199
330
1F
100
AcDbEntity
  8
1
  6
Continuous
 62
     7
370
     9
100
AcDbMText
 10
497.9666877868019
 20
39.76116460478656
 30
0.0
 40
20.0
 41
46.40940940940941
 46
20.0
 71
     7
 72
     1
  1
{\fＭＳ 明朝;\T0.750000;15A}
 73
     1
 44
1.0
1001
ACAD
1000
ACAD_MTEXT_DEFINED_HEIGHT_BEGIN
1070
    46
1040
20.0
1000
ACAD_MTEXT_DEFINED_HEIGHT_END
  0
MTEXT
  5
19A
330
1F
100
AcDbEntity
  8
1
  6
Continuous
 62
     7
370
     9
100
AcDbMText
 10
664.3485014304092
 20
39.76116460478656
 30
0.0
 40
20.0
 41
49.02482482482482
 46
20.0
 71
     7
 72
     1
  1
{\fＭＳ 明朝;\T0.750000;20A}
 73
     1
 44
1.0
1001
ACAD
1000
ACAD_MTEXT_DEFINED_HEIGHT_BEGIN
1070
    46
1040
20.0
1000
ACAD_MTEXT_DEFINED_HEIGHT_END
  0
LINE
  5
19B
330
1F
100
AcDbEntity
  8
1
  6
Continuous
 62
     7
370
     9
100
AcDbLine
 10
198.7947697087451
 20
75.42117970483889
 30
0.0
 11
197.5560600313257
 21
74.1824700274195
 31
0.0
  0
LINE
  5
19C
330
1F
100
AcDbEntity
  8
1
  6
Continuous
 62
     7
370
     9
100
AcDbLine
 10
198.7947697087452
 20
85.80255470483891
 30
0.0
 11
198.7947697087452
 21
75.42117970483906
 31
0.0
  0
LINE
  5
19D
330
1F
100
AcDbEntity
  8
1
  6
Continuous
 62
     7
370
     9
100
AcDbLine
 10
198.4396729345517
 20
86.15765147903247
 30
0.0
 11
188.362247419881
 21
86.34757102636593
 31
0.0
  0
LINE
  5
19E
330
1F
100
AcDbEntity
  8
1
  6
Continuous
 62
     7
370
     9
100
AcDbLine
 10
197.5560600313258
 20
87.04126438225828
 30
0.0
 11
197.5560600313258
 21
74.18247002741958
 31
0.0
  0
LINE
  5
19F
330
1F
100
AcDbEntity
  8
1
  6
Continuous
 62
     7
370
     9
100
AcDbLine
 10
188.362247419881
 20
86.34757102636593
 30
0.0
 11
186.7947697087452
 21
87.25255470483896
 31
0.0
  0
LINE
  5
1A0
330
1F
100
AcDbEntity
  8
1
  6
Continuous
 62
     7
370
     9
100
AcDbLine
 10
198.7947697087451
 20
85.80255470483897
 30
0.0
 11
197.5560600313256
 21
87.04126438225836
 31
0.0
  0
LINE
  5
1A1
330
1F
100
AcDbEntity
  8
1
  6
Continuous
 62
     7
370
     9
100
AcDbLine
 10
197.5560600313257
 20
74.18247002741961
 30
0.0
 11
186.7947697087452
 21
73.97117970483896
 31
0.0
  0
LINE
  5
1A2
330
1F
100
AcDbEntity
  8
1
  6
Continuous
 62
     7
370
     9
100
AcDbLine
 10
197.5560600313256
 20
87.04126438225833
 30
0.0
 11
186.7947697087452
 21
87.25255470483896
 31
0.0
  0
LINE
  5
1A3
330
1F
100
AcDbEntity
  8
1
  6
Continuous
 62
     7
370
     9
100
AcDbLine
 10
164.7947697087454
 20
75.42117970483909
 30
0.0
 11
166.0334793861649
 21
74.1824700274197
 31
0.0
  0
LINE
  5
1A4
330
1F
100
AcDbEntity
  8
1
  6
Continuous
 62
     7
370
     9
100
AcDbLine
 10
164.7947697087452
 20
85.80255470483891
 30
0.0
 11
164.7947697087452
 21
75.42117970483906
 31
0.0
  0
LINE
  5
1A5
330
1F
100
AcDbEntity
  8
1
  6
Continuous
 62
     7
370
     9
100
AcDbLine
 10
165.1498664829388
 20
86.1576514790325
 30
0.0
 11
175.2272919976094
 21
86.34757102636596
 31
0.0
  0
LINE
  5
1A6
330
1F
100
AcDbEntity
  8
1
  6
Continuous
 62
     7
370
     9
100
AcDbLine
 10
166.0334793861646
 20
87.04126438225828
 30
0.0
 11
166.0334793861646
 21
74.18247002741958
 31
0.0
  0
LINE
  5
1A7
330
1F
100
AcDbEntity
  8
1
  6
Continuous
 62
     7
370
     9
100
AcDbLine
 10
175.2272919976094
 20
86.34757102636596
 30
0.0
 11
176.7947697087453
 21
87.25255470483901
 31
0.0
  0
LINE
  5
1A8
330
1F
100
AcDbEntity
  8
1
  6
Continuous
 62
     7
370
     9
100
AcDbLine
 10
164.7947697087453
 20
85.80255470483874
 30
0.0
 11
166.0334793861647
 21
87.04126438225813
 31
0.0
  0
LINE
  5
1A9
330
1F
100
AcDbEntity
  8
1
  6
Continuous
 62
     7
370
     9
100
AcDbLine
 10
177.0849328990369
 20
88.69477097349372
 30
0.0
 11
186.5046065184536
 21
88.69477097349372
 31
0.0
  0
LINE
  5
1AA
330
1F
100
AcDbEntity
  8
1
  6
Continuous
 62
     7
370
     9
100
AcDbLine
 10
177.0849328990369
 20
72.52896343618417
 30
0.0
 11
186.5046065184536
 21
72.52896343618417
 31
0.0
  0
LINE
  5
1AB
330
1F
100
AcDbEntity
  8
1
  6
Continuous
 62
     7
370
     9
100
AcDbLine
 10
176.7947697087452
 20
73.61186720483894
 30
0.0
 11
176.7947697087452
 21
87.61186720483894
 31
0.0
  0
LINE
  5
1AC
330
1F
100
AcDbEntity
  8
1
  6
Continuous
 62
     7
370
     9
100
AcDbLine
 10
186.7947697087452
 20
73.61186720483894
 30
0.0
 11
186.7947697087452
 21
87.61186720483894
 31
0.0
  0
LINE
  5
1AD
330
1F
100
AcDbEntity
  8
1
  6
Continuous
 62
     7
370
     9
100
AcDbLine
 10
166.0334793861648
 20
87.04126438225833
 30
0.0
 11
176.7947697087452
 21
87.25255470483896
 31
0.0
  0
LINE
  5
1AE
330
1F
100
AcDbEntity
  8
1
  6
Continuous
 62
     7
370
     9
100
AcDbLine
 10
166.0334793861647
 20
74.18247002741961
 30
0.0
 11
176.7947697087452
 21
73.97117970483896
 31
0.0
  0
LINE
  5
1AF
330
1F
100
AcDbEntity
  8
1
  6
Continuous
 62
     7
370
     9
100
AcDbLine
 10
177.0849328990369
 20
84.65331908916633
 30
0.0
 11
186.5046065184536
 21
84.65331908916633
 31
0.0
  0
LINE
  5
1B0
330
1F
100
AcDbEntity
  8
1
  6
Continuous
 62
     7
370
     9
100
AcDbLine
 10
177.0849328990369
 20
76.57041532051156
 30
0.0
 11
186.5046065184536
 21
76.57041532051156
 31
0.0
  0
LINE
  5
1B1
330
1F
100
AcDbEntity
  8
1
  6
Continuous
 62
     7
370
     9
100
AcDbLine
 10
176.7947697087452
 20
87.61186720483894
 30
0.0
 11
177.0849328990369
 21
88.69477097349372
 31
0.0
  0
LINE
  5
1B2
330
1F
100
AcDbEntity
  8
1
  6
Continuous
 62
     7
370
     9
100
AcDbLine
 10
186.7947697087452
 20
87.61186720483894
 30
0.0
 11
186.5046065184536
 21
88.69477097349372
 31
0.0
  0
LINE
  5
1B3
330
1F
100
AcDbEntity
  8
1
  6
Continuous
 62
     7
370
     9
100
AcDbLine
 10
186.7947697087452
 20
73.61186720483894
 30
0.0
 11
186.5046065184536
 21
72.52896343618417
 31
0.0
  0
LINE
  5
1B4
330
1F
100
AcDbEntity
  8
1
  6
Continuous
 62
     7
370
     9
100
AcDbLine
 10
176.7947697087452
 20
73.61186720483894
 30
0.0
 11
177.0849328990369
 21
72.52896343618417
 31
0.0
  0
LINE
  5
1B5
330
1F
100
AcDbEntity
  8
1
  6
Continuous
 62
     7
370
     9
100
AcDbLine
 10
175.2272919976094
 20
74.87616338331193
 30
0.0
 11
176.7947697087453
 21
73.97117970483887
 31
0.0
  0
LINE
  5
1B6
330
1F
100
AcDbEntity
  8
1
  6
Continuous
 62
     7
370
     9
100
AcDbLine
 10
165.1498664829388
 20
75.0660829306454
 30
0.0
 11
175.2272919976094
 21
74.87616338331193
 31
0.0
  0
LINE
  5
1B7
330
1F
100
AcDbEntity
  8
1
  6
Continuous
 62
     7
370
     9
100
AcDbLine
 10
188.362247419881
 20
74.87616338331196
 30
0.0
 11
186.7947697087452
 21
73.97117970483893
 31
0.0
  0
LINE
  5
1B8
330
1F
100
AcDbEntity
  8
1
  6
Continuous
 62
     7
370
     9
100
AcDbLine
 10
198.4396729345517
 20
75.06608293064542
 30
0.0
 11
188.362247419881
 21
74.87616338331196
 31
0.0
  0
LINE
  5
1B9
330
1F
100
AcDbEntity
  8
1
  6
Continuous
 62
     7
370
     9
100
AcDbLine
 10
175.2272919976094
 20
87.20357102636598
 30
0.0
 11
175.2272919976094
 21
74.02016338331197
 31
0.0
  0
LINE
  5
1BA
330
1F
100
AcDbEntity
  8
1
  6
Continuous
 62
     7
370
     9
100
AcDbLine
 10
188.362247419881
 20
87.20357102636598
 30
0.0
 11
188.362247419881
 21
74.02016338331197
 31
0.0
  0
ARC
  5
1BB
330
1F
100
AcDbEntity
  8
1
  6
Continuous
 62
     7
370
     9
100
AcDbCircle
 10
183.9761217026775
 20
86.67404503133002
 30
0.0
 40
7.181351993932273
100
AcDbArc
 50
163.6571066940159
 51
196.3428933059848
  0
ARC
  5
1BC
330
1F
100
AcDbEntity
  8
1
  6
Continuous
 62
     7
370
     9
100
AcDbCircle
 10
205.0849328990367
 20
80.61186720483894
 30
0.0
 40
28.29016319029157
100
AcDbArc
 50
171.7867892982618
 51
188.2132107017385
  0
ARC
  5
1BD
330
1F
100
AcDbEntity
  8
1
  6
Continuous
 62
     7
370
     9
100
AcDbCircle
 10
183.9761217026775
 20
74.54968937834786
 30
0.0
 40
7.181351993932273
100
AcDbArc
 50
163.6571066940156
 51
196.3428933059846
  0
ARC
  5
1BE
330
1F
100
AcDbEntity
  8
1
  6
Continuous
 62
     7
370
     9
100
AcDbCircle
 10
179.613417714813
 20
86.67404503133002
 30
0.0
 40
7.181351993932273
100
AcDbArc
 50
343.6571066940159
 51
16.34289330598415
  0
ARC
  5
1BF
330
1F
100
AcDbEntity
  8
1
  6
Continuous
 62
     7
370
     9
100
AcDbCircle
 10
158.5046065184536
 20
80.61186720483894
 30
0.0
 40
28.29016319029157
100
AcDbArc
 50
351.7867892982621
 51
8.21321070173817
  0
ARC
  5
1C0
330
1F
100
AcDbEntity
  8
1
  6
Continuous
 62
     7
370
     9
100
AcDbCircle
 10
179.613417714813
 20
74.54968937834786
 30
0.0
 40
7.181351993932273
100
AcDbArc
 50
343.6571066940162
 51
16.34289330598437
  0
LINE
  5
1C1
330
1F
100
AcDbEntity
  8
1
  6
Continuous
 62
     7
370
     9
100
AcDbLine
 10
225.7947697087452
 20
88.69477097349369
 30
0.0
 11
218.7947697087452
 21
84.65331908916633
 31
0.0
  0
LINE
  5
1C2
330
1F
100
AcDbEntity
  8
1
  6
Continuous
 62
     7
370
     9
100
AcDbLine
 10
218.7947697087452
 20
84.65331908916633
 30
0.0
 11
218.7947697087452
 21
76.57041532051156
 31
0.0
  0
LINE
  5
1C3
330
1F
100
AcDbEntity
  8
1
  6
Continuous
 62
     7
370
     9
100
AcDbLine
 10
225.7947697087452
 20
72.52896343618417
 30
0.0
 11
218.7947697087452
 21
76.57041532051156
 31
0.0
  0
LINE
  5
1C4
330
1F
100
AcDbEntity
  8
1
  6
Continuous
 62
     7
370
     9
100
AcDbLine
 10
232.7947697087452
 20
76.57041532051156
 30
0.0
 11
225.7947697087452
 21
72.52896343618417
 31
0.0
  0
LINE
  5
1C5
330
1F
100
AcDbEntity
  8
1
  6
Continuous
 62
     7
370
     9
100
AcDbLine
 10
232.7947697087452
 20
84.6533190891663
 30
0.0
 11
232.7947697087452
 21
76.57041532051156
 31
0.0
  0
LINE
  5
1C6
330
1F
100
AcDbEntity
  8
1
  6
Continuous
 62
     7
370
     9
100
AcDbLine
 10
225.7947697087452
 20
88.69477097349372
 30
0.0
 11
232.7947697087452
 21
84.65331908916633
 31
0.0
  0
CIRCLE
  5
1C7
330
1F
100
AcDbEntity
  8
1
  6
Continuous
 62
     7
370
     9
100
AcDbCircle
 10
225.7947697087452
 20
80.61186720483894
 30
0.0
 40
6.578500000000005
  0
CIRCLE
  5
1C8
330
1F
100
AcDbEntity
  8
1
  6
Continuous
 62
     7
370
     9
100
AcDbCircle
 10
225.7947697087452
 20
80.61186720483894
 30
0.0
 40
5.722499999999997
  0
CIRCLE
  5
1C9
330
1F
100
AcDbEntity
  8
1
  6
Continuous
 62
     7
370
     9
100
AcDbCircle
 10
225.7947697087452
 20
80.61186720483894
 30
0.0
 40
3.5
  0
CIRCLE
  5
1CA
330
1F
100
AcDbEntity
  8
1
  6
Continuous
 62
     7
370
     9
100
AcDbCircle
 10
225.7947697087452
 20
80.61186720483894
 30
0.0
 40
6.640500000000003
  0
CIRCLE
  5
1CB
330
1F
100
AcDbEntity
  8
1
  6
Continuous
 62
     7
370
     9
100
AcDbCircle
 10
225.7947697087452
 20
80.61186720483894
 30
0.0
 40
3.799999999999997
  0
CIRCLE
  5
1CC
330
1F
100
AcDbEntity
  8
1
  6
Continuous
 62
     7
370
     9
100
AcDbCircle
 10
225.7947697087452
 20
80.61186720483894
 30
0.0
 40
7.0
  0
LINE
  5
1CD
330
1F
100
AcDbEntity
  8
7
  6
DASHDOT
 62
     4
370
     9
100
AcDbLine
 10
160.7947697087452
 20
80.61186720483894
 30
0.0
 11
202.7947697087452
 21
80.61186720483894
 31
0.0
  0
LINE
  5
1CE
330
1F
100
AcDbEntity
  8
7
  6
PHANTOM
 62
     4
370
     9
100
AcDbLine
 10
170.8047697087452
 20
87.13494529236894
 30
0.0
 11
170.8047697087452
 21
74.08878911730898
 31
0.0
  0
LINE
  5
1CF
330
1F
100
AcDbEntity
  8
7
  6
PHANTOM
 62
     4
370
     9
100
AcDbLine
 10
192.7847697087452
 20
87.13494529236894
 30
0.0
 11
192.7847697087452
 21
74.08878911730898
 31
0.0
  0
LINE
  5
1D0
330
1F
100
AcDbEntity
  8
7
  6
DASHDOT
 62
     4
370
     9
100
AcDbLine
 10
225.7947697087452
 20
93.11186720483894
 30
0.0
 11
225.7947697087452
 21
68.11186720483894
 31
0.0
  0
LINE
  5
1D1
330
1F
100
AcDbEntity
  8
7
  6
DASHDOT
 62
     4
370
     9
100
AcDbLine
 10
213.2947697087452
 20
80.61186720483894
 30
0.0
 11
238.2947697087452
 21
80.61186720483894
 31
0.0
  0
LINE
  5
1D2
330
1F
100
AcDbEntity
  8
1
  6
Continuous
 62
     7
370
     9
100
AcDbLine
 10
338.8420308112169
 20
88.07877539428101
 30
0.0
 11
338.8420308112169
 21
74.21365039428106
 31
0.0
  0
LINE
  5
1D3
330
1F
100
AcDbEntity
  8
1
  6
Continuous
 62
     7
370
     9
100
AcDbLine
 10
338.8420308112171
 20
88.07877539428098
 30
0.0
 11
337.6033211337977
 21
89.31748507170032
 31
0.0
  0
LINE
  5
1D4
330
1F
100
AcDbEntity
  8
1
  6
Continuous
 62
     7
370
     9
100
AcDbLine
 10
337.6033211337976
 20
72.97494071686158
 30
0.0
 11
325.8420630465419
 21
72.73062015163485
 31
0.0
  0
LINE
  5
1D5
330
1F
100
AcDbEntity
  8
1
  6
Continuous
 62
     7
370
     9
100
AcDbLine
 10
337.6033211337975
 20
89.31748507170035
 30
0.0
 11
337.6033211337975
 21
72.97494071686164
 31
0.0
  0
LINE
  5
1D6
330
1F
100
AcDbEntity
  8
1
  6
Continuous
 62
     7
370
     9
100
AcDbLine
 10
338.4869340370232
 20
88.43387216847454
 30
0.0
 11
327.4095407576777
 21
88.67209634475383
 31
0.0
  0
LINE
  5
1D7
330
1F
100
AcDbEntity
  8
1
  6
Continuous
 62
     7
370
     9
100
AcDbLine
 10
338.4869340370232
 20
73.85855362008748
 30
0.0
 11
327.4095407576777
 21
73.62032944380819
 31
0.0
  0
LINE
  5
1D8
330
1F
100
AcDbEntity
  8
1
  6
Continuous
 62
     7
370
     9
100
AcDbLine
 10
338.8420308112167
 20
74.21365039428106
 30
0.0
 11
337.6033211337974
 21
72.97494071686172
 31
0.0
  0
LINE
  5
1D9
330
1F
100
AcDbEntity
  8
1
  6
Continuous
 62
     7
370
     9
100
AcDbLine
 10
337.6033211337975
 20
89.31748507170037
 30
0.0
 11
325.8420630465419
 21
89.5618056369271
 31
0.0
  0
LINE
  5
1DA
330
1F
100
AcDbEntity
  8
1
  6
Continuous
 62
     7
370
     9
100
AcDbLine
 10
327.4095407576777
 20
88.6568219584541
 30
0.0
 11
325.8420630465418
 21
89.56180563692713
 31
0.0
  0
LINE
  5
1DB
330
1F
100
AcDbEntity
  8
1
  6
Continuous
 62
     7
370
     9
100
AcDbLine
 10
302.8420308112169
 20
88.07877539428101
 30
0.0
 11
302.8420308112169
 21
74.21365039428106
 31
0.0
  0
LINE
  5
1DC
330
1F
100
AcDbEntity
  8
1
  6
Continuous
 62
     7
370
     9
100
AcDbLine
 10
302.8420308112168
 20
88.07877539428098
 30
0.0
 11
304.0807404886361
 21
89.31748507170032
 31
0.0
  0
LINE
  5
1DD
330
1F
100
AcDbEntity
  8
1
  6
Continuous
 62
     7
370
     9
100
AcDbLine
 10
304.0807404886363
 20
72.97494071686161
 30
0.0
 11
315.8420630465419
 21
72.73418063692706
 31
0.0
  0
LINE
  5
1DE
330
1F
100
AcDbEntity
  8
1
  6
Continuous
 62
     7
370
     9
100
AcDbLine
 10
304.0807404886363
 20
89.31748507170035
 30
0.0
 11
304.0807404886363
 21
72.97494071686164
 31
0.0
  0
LINE
  5
1DF
330
1F
100
AcDbEntity
  8
1
  6
Continuous
 62
     7
370
     9
100
AcDbLine
 10
303.1971275854104
 20
88.43387216847454
 30
0.0
 11
314.274585335406
 21
88.66897739232776
 31
0.0
  0
LINE
  5
1E0
330
1F
100
AcDbEntity
  8
1
  6
Continuous
 62
     7
370
     9
100
AcDbLine
 10
314.274585335406
 20
88.65326147316189
 30
0.0
 11
315.842063046542
 21
89.55824515163498
 31
0.0
  0
LINE
  5
1E1
330
1F
100
AcDbEntity
  8
1
  6
Continuous
 62
     7
370
     9
100
AcDbLine
 10
304.0807404886363
 20
89.31748507170035
 30
0.0
 11
315.8420630465419
 21
89.55824515163489
 31
0.0
  0
LINE
  5
1E2
330
1F
100
AcDbEntity
  8
1
  6
Continuous
 62
     7
370
     9
100
AcDbLine
 10
302.842030811217
 20
74.21365039428103
 30
0.0
 11
304.0807404886363
 21
72.97494071686172
 31
0.0
  0
LINE
  5
1E3
330
1F
100
AcDbEntity
  8
1
  6
Continuous
 62
     7
370
     9
100
AcDbLine
 10
303.1971275854106
 20
73.85855362008748
 30
0.0
 11
314.274585335406
 21
73.62344839623422
 31
0.0
  0
LINE
  5
1E4
330
1F
100
AcDbEntity
  8
1
  6
Continuous
 62
     7
370
     9
100
AcDbLine
 10
316.1944040633246
 20
90.96116747050463
 30
0.0
 11
325.4897220297591
 21
90.96116747050463
 31
0.0
  0
LINE
  5
1E5
330
1F
100
AcDbEntity
  8
1
  6
Continuous
 62
     7
370
     9
100
AcDbLine
 10
316.1944040633246
 20
86.0536901823928
 30
0.0
 11
325.4897220297591
 21
86.0536901823928
 31
0.0
  0
LINE
  5
1E6
330
1F
100
AcDbEntity
  8
1
  6
Continuous
 62
     7
370
     9
100
AcDbLine
 10
315.8420630465419
 20
89.64621289428099
 30
0.0
 11
315.8420630465419
 21
72.64621289428099
 31
0.0
  0
LINE
  5
1E7
330
1F
100
AcDbEntity
  8
1
  6
Continuous
 62
     7
370
     9
100
AcDbLine
 10
325.8420630465419
 20
89.64621289428099
 30
0.0
 11
325.8420630465419
 21
72.64621289428099
 31
0.0
  0
LINE
  5
1E8
330
1F
100
AcDbEntity
  8
1
  6
Continuous
 62
     7
370
     9
100
AcDbLine
 10
315.8420630465419
 20
89.64621289428099
 30
0.0
 11
316.1944040633246
 21
90.96116747050463
 31
0.0
  0
LINE
  5
1E9
330
1F
100
AcDbEntity
  8
1
  6
Continuous
 62
     7
370
     9
100
AcDbLine
 10
325.8420630465419
 20
89.64621289428099
 30
0.0
 11
325.4897220297591
 21
90.96116747050463
 31
0.0
  0
LINE
  5
1EA
330
1F
100
AcDbEntity
  8
1
  6
Continuous
 62
     7
370
     9
100
AcDbLine
 10
316.1944040633246
 20
76.23873560616919
 30
0.0
 11
325.4897220297591
 21
76.23873560616919
 31
0.0
  0
LINE
  5
1EB
330
1F
100
AcDbEntity
  8
1
  6
Continuous
 62
     7
370
     9
100
AcDbLine
 10
325.8420630465419
 20
72.64621289428099
 30
0.0
 11
325.4897220297591
 21
71.33125831805735
 31
0.0
  0
LINE
  5
1EC
330
1F
100
AcDbEntity
  8
1
  6
Continuous
 62
     7
370
     9
100
AcDbLine
 10
315.8420630465419
 20
72.64621289428099
 30
0.0
 11
316.1944040633246
 21
71.33125831805735
 31
0.0
  0
LINE
  5
1ED
330
1F
100
AcDbEntity
  8
1
  6
Continuous
 62
     7
370
     9
100
AcDbLine
 10
316.1944040633246
 20
71.33125831805735
 30
0.0
 11
325.4897220297591
 21
71.33125831805735
 31
0.0
  0
LINE
  5
1EE
330
1F
100
AcDbEntity
  8
1
  6
Continuous
 62
     7
370
     9
100
AcDbLine
 10
314.274585335406
 20
73.6391643154001
 30
0.0
 11
315.842063046542
 21
72.73418063692701
 31
0.0
  0
LINE
  5
1EF
330
1F
100
AcDbEntity
  8
1
  6
Continuous
 62
     7
370
     9
100
AcDbLine
 10
327.4095407576777
 20
73.63560383010788
 30
0.0
 11
325.8420630465418
 21
72.73062015163485
 31
0.0
  0
LINE
  5
1F0
330
1F
100
AcDbEntity
  8
1
  6
Continuous
 62
     7
370
     9
100
AcDbLine
 10
327.4095407576777
 20
89.52924389586813
 30
0.0
 11
327.4095407576777
 21
72.76318189269382
 31
0.0
  0
LINE
  5
1F1
330
1F
100
AcDbEntity
  8
1
  6
Continuous
 62
     7
370
     9
100
AcDbLine
 10
314.274585335406
 20
89.52615810894302
 30
0.0
 11
314.274585335406
 21
72.76626767961896
 31
0.0
  0
ARC
  5
1F2
330
1F
100
AcDbEntity
  8
1
  6
Continuous
 62
     7
370
     9
100
AcDbCircle
 10
324.562276182031
 20
88.50742882644873
 30
0.0
 40
8.720213135489216
100
AcDbArc
 50
163.6571066940158
 51
196.3428933059847
  0
ARC
  5
1F3
330
1F
100
AcDbEntity
  8
1
  6
Continuous
 62
     7
370
     9
100
AcDbCircle
 10
350.1944040633246
 20
81.14621289428099
 30
0.0
 40
34.35234101678274
100
AcDbArc
 50
171.7867892982618
 51
188.2132107017385
  0
ARC
  5
1F4
330
1F
100
AcDbEntity
  8
1
  6
Continuous
 62
     7
370
     9
100
AcDbCircle
 10
324.562276182031
 20
73.78499696211325
 30
0.0
 40
8.720213135489216
100
AcDbArc
 50
163.6571066940158
 51
196.3428933059846
  0
ARC
  5
1F5
330
1F
100
AcDbEntity
  8
1
  6
Continuous
 62
     7
370
     9
100
AcDbCircle
 10
317.1218499110526
 20
73.78499696211325
 30
0.0
 40
8.720213135489216
100
AcDbArc
 50
343.6571066940162
 51
16.3428933059844
  0
ARC
  5
1F6
330
1F
100
AcDbEntity
  8
1
  6
Continuous
 62
     7
370
     9
100
AcDbCircle
 10
291.4897220297591
 20
81.14621289428099
 30
0.0
 40
34.35234101678275
100
AcDbArc
 50
351.7867892982621
 51
8.21321070173826
  0
ARC
  5
1F7
330
1F
100
AcDbEntity
  8
1
  6
Continuous
 62
     7
370
     9
100
AcDbCircle
 10
317.1218499110526
 20
88.50742882644873
 30
0.0
 40
8.720213135489216
100
AcDbArc
 50
343.6571066940161
 51
16.34289330598423
  0
LINE
  5
1F8
330
1F
100
AcDbEntity
  8
1
  6
Continuous
 62
     7
370
     9
100
AcDbLine
 10
367.3420308112169
 20
90.96116747050463
 30
0.0
 11
358.8420308112169
 21
86.0536901823928
 31
0.0
  0
LINE
  5
1F9
330
1F
100
AcDbEntity
  8
1
  6
Continuous
 62
     7
370
     9
100
AcDbLine
 10
358.8420308112169
 20
86.05369018239283
 30
0.0
 11
358.8420308112169
 21
76.23873560616919
 31
0.0
  0
LINE
  5
1FA
330
1F
100
AcDbEntity
  8
1
  6
Continuous
 62
     7
370
     9
100
AcDbLine
 10
367.3420308112169
 20
71.33125831805735
 30
0.0
 11
358.8420308112169
 21
76.23873560616919
 31
0.0
  0
LINE
  5
1FB
330
1F
100
AcDbEntity
  8
1
  6
Continuous
 62
     7
370
     9
100
AcDbLine
 10
375.8420308112169
 20
76.23873560616916
 30
0.0
 11
367.3420308112169
 21
71.33125831805735
 31
0.0
  0
LINE
  5
1FC
330
1F
100
AcDbEntity
  8
1
  6
Continuous
 62
     7
370
     9
100
AcDbLine
 10
375.842030811217
 20
86.0536901823928
 30
0.0
 11
375.8420308112169
 21
76.23873560616916
 31
0.0
  0
LINE
  5
1FD
330
1F
100
AcDbEntity
  8
1
  6
Continuous
 62
     7
370
     9
100
AcDbLine
 10
367.3420308112169
 20
90.96116747050463
 30
0.0
 11
375.842030811217
 21
86.0536901823928
 31
0.0
  0
CIRCLE
  5
1FE
330
1F
100
AcDbEntity
  8
1
  6
Continuous
 62
     7
370
     9
100
AcDbCircle
 10
367.3420308112169
 20
81.14621289428099
 30
0.0
 40
7.474999999999994
  0
CIRCLE
  5
1FF
330
1F
100
AcDbEntity
  8
1
  6
Continuous
 62
     7
370
     9
100
AcDbCircle
 10
367.3420308112169
 20
81.14621289428099
 30
0.0
 40
8.331000000000003
  0
CIRCLE
  5
200
330
1F
100
AcDbEntity
  8
1
  6
Continuous
 62
     7
370
     9
100
AcDbCircle
 10
367.3420308112169
 20
81.14621289428099
 30
0.0
 40
4.5
  0
CIRCLE
  5
201
330
1F
100
AcDbEntity
  8
1
  6
Continuous
 62
     7
370
     9
100
AcDbCircle
 10
367.3420308112169
 20
81.14621289428099
 30
0.0
 40
8.5
  0
CIRCLE
  5
202
330
1F
100
AcDbEntity
  8
1
  6
Continuous
 62
     7
370
     9
100
AcDbCircle
 10
367.3420308112169
 20
81.14621289428099
 30
0.0
 40
6.932500000000005
  0
CIRCLE
  5
203
330
1F
100
AcDbEntity
  8
1
  6
Continuous
 62
     7
370
     9
100
AcDbCircle
 10
367.3420308112169
 20
81.14621289428099
 30
0.0
 40
4.799999999999997
  0
LINE
  5
204
330
1F
100
AcDbEntity
  8
7
  6
DASHDOT
 62
     4
370
     9
100
AcDbLine
 10
298.8420308112169
 20
81.14621289428099
 30
0.0
 11
342.8420308112169
 21
81.14621289428099
 31
0.0
  0
LINE
  5
205
330
1F
100
AcDbEntity
  8
7
  6
PHANTOM
 62
     4
370
     9
100
AcDbLine
 10
309.1920308112169
 20
89.4221157083124
 30
0.0
 11
309.1920308112169
 21
72.87031008024958
 31
0.0
  0
LINE
  5
206
330
1F
100
AcDbEntity
  8
7
  6
PHANTOM
 62
     4
370
     9
100
AcDbLine
 10
332.4920308112169
 20
89.4236636226161
 30
0.0
 11
332.4920308112169
 21
72.86876216594585
 31
0.0
  0
LINE
  5
207
330
1F
100
AcDbEntity
  8
7
  6
DASHDOT
 62
     4
370
     9
100
AcDbLine
 10
367.3420308112169
 20
93.796212894281
 30
0.0
 11
367.3420308112169
 21
68.49621289428099
 31
0.0
  0
LINE
  5
208
330
1F
100
AcDbEntity
  8
7
  6
DASHDOT
 62
     4
370
     9
100
AcDbLine
 10
354.6920308112169
 20
81.14621289428099
 30
0.0
 11
379.992030811217
 21
81.14621289428099
 31
0.0
  0
LINE
  5
209
330
1F
100
AcDbEntity
  8
1
  6
Continuous
 62
     7
370
     9
100
AcDbLine
 10
454.0760824535008
 20
96.16569679888615
 30
0.0
 11
467.7262849939862
 21
96.5899022222534
 31
0.0
  0
LINE
  5
20A
330
1F
100
AcDbEntity
  8
1
  6
Continuous
 62
     7
370
     9
100
AcDbLine
 10
467.7262849939862
 20
75.13372136323912
 30
0.0
 11
467.7262849939862
 21
96.5899022222534
 31
0.0
  0
LINE
  5
20B
330
1F
100
AcDbEntity
  8
1
  6
Continuous
 62
     7
370
     9
100
AcDbLine
 10
476.0372212441019
 20
72.32875937813402
 30
0.0
 11
476.4391450327487
 21
73.82875937813414
 31
0.0
  0
LINE
  5
20C
330
1F
100
AcDbEntity
  8
1
  6
Continuous
 62
     7
370
     9
100
AcDbLine
 10
492.0014771424212
 20
94.96642726846149
 30
0.0
 11
479.2791450327487
 21
95.36179739302894
 31
0.0
  0
LINE
  5
20D
330
1F
100
AcDbEntity
  8
1
  6
Continuous
 62
     7
370
     9
100
AcDbLine
 10
468.8410688213954
 20
99.32875937813402
 30
0.0
 11
468.4391450327487
 21
97.82875937813391
 31
0.0
  0
LINE
  5
20E
330
1F
100
AcDbEntity
  8
1
  6
Continuous
 62
     7
370
     9
100
AcDbLine
 10
468.8410688213954
 20
99.32875937813402
 30
0.0
 11
476.0372212441019
 21
99.32875937813402
 31
0.0
  0
LINE
  5
20F
330
1F
100
AcDbEntity
  8
1
  6
Continuous
 62
     7
370
     9
100
AcDbLine
 10
492.4391450327487
 20
94.52875937813401
 30
0.0
 11
492.4391450327487
 21
77.12875937813402
 31
0.0
  0
LINE
  5
210
330
1F
100
AcDbEntity
  8
1
  6
Continuous
 62
     7
370
     9
100
AcDbLine
 10
479.2791450327487
 20
95.36179739302894
 30
0.0
 11
477.1520050715112
 21
96.58990222225337
 31
0.0
  0
LINE
  5
211
330
1F
100
AcDbEntity
  8
1
  6
Continuous
 62
     7
370
     9
100
AcDbLine
 10
476.4391450327487
 20
97.81489459294913
 30
0.0
 11
476.4391450327487
 21
97.82875937813391
 31
0.0
  0
LINE
  5
212
330
1F
100
AcDbEntity
  8
1
  6
Continuous
 62
     7
370
     9
100
AcDbLine
 10
465.5991450327487
 20
75.13372136323912
 30
0.0
 11
465.5991450327487
 21
96.52379739302894
 31
0.0
  0
LINE
  5
213
330
1F
100
AcDbEntity
  8
1
  6
Continuous
 62
     7
370
     9
100
AcDbLine
 10
492.4391450327487
 20
77.12875937813403
 30
0.0
 11
490.8022076119966
 21
75.49182195738192
 31
0.0
  0
LINE
  5
214
330
1F
100
AcDbEntity
  8
1
  6
Continuous
 62
     7
370
     9
100
AcDbLine
 10
465.5991450327487
 20
76.29572136323911
 30
0.0
 11
467.7262849939862
 21
75.06761653401465
 31
0.0
  0
LINE
  5
215
330
1F
100
AcDbEntity
  8
1
  6
Continuous
 62
     7
370
     9
100
AcDbLine
 10
468.8410688213954
 20
79.64410093970754
 30
0.0
 11
468.8410688213954
 21
78.52878375193397
 31
0.0
  0
LINE
  5
216
330
1F
100
AcDbEntity
  8
1
  6
Continuous
 62
     7
370
     9
100
AcDbLine
 10
492.4391450327487
 20
94.52875937813401
 30
0.0
 11
490.8022076119966
 21
96.16569679888615
 31
0.0
  0
LINE
  5
217
330
1F
100
AcDbEntity
  8
1
  6
Continuous
 62
     7
370
     9
100
AcDbLine
 10
476.4391450327487
 20
73.84262416331892
 30
0.0
 11
476.4391450327487
 21
73.82875937813414
 31
0.0
  0
LINE
  5
218
330
1F
100
AcDbEntity
  8
1
  6
Continuous
 62
     7
370
     9
100
AcDbLine
 10
465.5991450327487
 20
95.36179739302894
 30
0.0
 11
467.7262849939862
 21
96.5899022222534
 31
0.0
  0
LINE
  5
219
330
1F
100
AcDbEntity
  8
1
  6
Continuous
 62
     7
370
     9
100
AcDbLine
 10
476.0372212441019
 20
99.32875937813402
 30
0.0
 11
476.4391450327487
 21
97.82875937813391
 31
0.0
  0
LINE
  5
21A
330
1F
100
AcDbEntity
  8
1
  6
Continuous
 62
     7
370
     9
100
AcDbLine
 10
468.4391450327487
 20
97.82875937813391
 30
0.0
 11
468.4391450327487
 21
73.82875937813414
 31
0.0
  0
LINE
  5
21B
330
1F
100
AcDbEntity
  8
1
  6
Continuous
 62
     7
370
     9
100
AcDbLine
 10
468.8410688213954
 20
92.0134178165605
 30
0.0
 11
468.8410688213954
 21
93.12873500433408
 31
0.0
  0
LINE
  5
21C
330
1F
100
AcDbEntity
  8
1
  6
Continuous
 62
     7
370
     9
100
AcDbLine
 10
468.8410688213954
 20
72.32875937813402
 30
0.0
 11
468.4391450327487
 21
73.82875937813412
 31
0.0
  0
LINE
  5
21D
330
1F
100
AcDbEntity
  8
1
  6
Continuous
 62
     7
370
     9
100
AcDbLine
 10
454.0760824535008
 20
75.4918219573819
 30
0.0
 11
454.0760824535008
 21
96.16569679888615
 31
0.0
  0
LINE
  5
21E
330
1F
100
AcDbEntity
  8
1
  6
Continuous
 62
     7
370
     9
100
AcDbLine
 10
468.8410688213954
 20
72.32875937813402
 30
0.0
 11
476.0372212441019
 21
72.32875937813402
 31
0.0
  0
LINE
  5
21F
330
1F
100
AcDbEntity
  8
1
  6
Continuous
 62
     7
370
     9
100
AcDbLine
 10
468.8410688213954
 20
79.64410093970754
 30
0.0
 11
476.0372212441019
 21
79.64410093970754
 31
0.0
  0
LINE
  5
220
330
1F
100
AcDbEntity
  8
1
  6
Continuous
 62
     7
370
     9
100
AcDbLine
 10
468.8410688213954
 20
78.52878375193397
 30
0.0
 11
476.0372212441019
 21
78.52878375193397
 31
0.0
  0
LINE
  5
221
330
1F
100
AcDbEntity
  8
1
  6
Continuous
 62
     7
370
     9
100
AcDbLine
 10
452.4391450327487
 20
94.52875937813404
 30
0.0
 11
454.0760824535008
 21
96.16569679888615
 31
0.0
  0
LINE
  5
222
330
1F
100
AcDbEntity
  8
1
  6
Continuous
 62
     7
370
     9
100
AcDbLine
 10
452.8768129230762
 20
76.69109148780655
 30
0.0
 11
465.5991450327487
 21
76.29572136323911
 31
0.0
  0
LINE
  5
223
330
1F
100
AcDbEntity
  8
1
  6
Continuous
 62
     7
370
     9
100
AcDbLine
 10
452.4391450327487
 20
77.12875937813403
 30
0.0
 11
454.0760824535008
 21
75.4918219573819
 31
0.0
  0
LINE
  5
224
330
1F
100
AcDbEntity
  8
1
  6
Continuous
 62
     7
370
     9
100
AcDbLine
 10
452.4391450327487
 20
94.52875937813401
 30
0.0
 11
452.4391450327487
 21
77.12875937813402
 31
0.0
  0
LINE
  5
225
330
1F
100
AcDbEntity
  8
1
  6
Continuous
 62
     7
370
     9
100
AcDbLine
 10
454.0760824535008
 20
75.4918219573819
 30
0.0
 11
467.7262849939862
 21
75.06761653401465
 31
0.0
  0
LINE
  5
226
330
1F
100
AcDbEntity
  8
1
  6
Continuous
 62
     7
370
     9
100
AcDbLine
 10
476.4391450327487
 20
97.82875937813391
 30
0.0
 11
476.4391450327487
 21
73.82875937813414
 31
0.0
  0
LINE
  5
227
330
1F
100
AcDbEntity
  8
1
  6
Continuous
 62
     7
370
     9
100
AcDbLine
 10
476.0372212441019
 20
79.64410093970754
 30
0.0
 11
476.0372212441019
 21
78.52878375193397
 31
0.0
  0
LINE
  5
228
330
1F
100
AcDbEntity
  8
1
  6
Continuous
 62
     7
370
     9
100
AcDbLine
 10
476.0372212441019
 20
92.0134178165605
 30
0.0
 11
476.0372212441019
 21
93.12873500433408
 31
0.0
  0
LINE
  5
229
330
1F
100
AcDbEntity
  8
1
  6
Continuous
 62
     7
370
     9
100
AcDbLine
 10
467.7262849939862
 20
75.06761653401465
 30
0.0
 11
468.1808208727779
 21
74.28033729808433
 31
0.0
  0
LINE
  5
22A
330
1F
100
AcDbEntity
  8
1
  6
Continuous
 62
     7
370
     9
100
AcDbLine
 10
467.7262849939862
 20
96.5899022222534
 30
0.0
 11
468.1808208727779
 21
97.37718145818373
 31
0.0
  0
LINE
  5
22B
330
1F
100
AcDbEntity
  8
1
  6
Continuous
 62
     7
370
     9
100
AcDbLine
 10
452.8768129230762
 20
94.96642726846149
 30
0.0
 11
465.5991450327487
 21
95.36179739302894
 31
0.0
  0
LINE
  5
22C
330
1F
100
AcDbEntity
  8
1
  6
Continuous
 62
     7
370
     9
100
AcDbLine
 10
490.8022076119966
 20
96.16569679888615
 30
0.0
 11
477.1520050715112
 21
96.5899022222534
 31
0.0
  0
LINE
  5
22D
330
1F
100
AcDbEntity
  8
1
  6
Continuous
 62
     7
370
     9
100
AcDbLine
 10
477.1520050715112
 20
75.13372136323912
 30
0.0
 11
477.1520050715112
 21
96.58990222225337
 31
0.0
  0
LINE
  5
22E
330
1F
100
AcDbEntity
  8
1
  6
Continuous
 62
     7
370
     9
100
AcDbLine
 10
479.2791450327487
 20
76.29572136323911
 30
0.0
 11
477.1520050715112
 21
75.06761653401466
 31
0.0
  0
LINE
  5
22F
330
1F
100
AcDbEntity
  8
1
  6
Continuous
 62
     7
370
     9
100
AcDbLine
 10
479.2791450327487
 20
75.13372136323912
 30
0.0
 11
479.2791450327487
 21
96.52379739302894
 31
0.0
  0
LINE
  5
230
330
1F
100
AcDbEntity
  8
1
  6
Continuous
 62
     7
370
     9
100
AcDbLine
 10
490.8022076119966
 20
75.4918219573819
 30
0.0
 11
490.8022076119966
 21
96.16569679888615
 31
0.0
  0
LINE
  5
231
330
1F
100
AcDbEntity
  8
1
  6
Continuous
 62
     7
370
     9
100
AcDbLine
 10
492.0014771424212
 20
76.69109148780655
 30
0.0
 11
479.2791450327487
 21
76.29572136323911
 31
0.0
  0
LINE
  5
232
330
1F
100
AcDbEntity
  8
1
  6
Continuous
 62
     7
370
     9
100
AcDbLine
 10
490.8022076119966
 20
75.4918219573819
 30
0.0
 11
477.1520050715112
 21
75.06761653401465
 31
0.0
  0
LINE
  5
233
330
1F
100
AcDbEntity
  8
1
  6
Continuous
 62
     7
370
     9
100
AcDbLine
 10
468.8410688213954
 20
93.12873500433408
 30
0.0
 11
476.0372212441019
 21
93.12873500433408
 31
0.0
  0
LINE
  5
234
330
1F
100
AcDbEntity
  8
1
  6
Continuous
 62
     7
370
     9
100
AcDbLine
 10
477.1520050715112
 20
75.06761653401465
 30
0.0
 11
476.6974691927195
 21
74.28033729808435
 31
0.0
  0
LINE
  5
235
330
1F
100
AcDbEntity
  8
1
  6
Continuous
 62
     7
370
     9
100
AcDbLine
 10
477.1520050715112
 20
96.5899022222534
 30
0.0
 11
476.6974691927195
 21
97.37718145818373
 31
0.0
  0
LINE
  5
236
330
1F
100
AcDbEntity
  8
1
  6
Continuous
 62
     7
370
     9
100
AcDbLine
 10
468.1808208727779
 20
74.28033729808435
 30
0.0
 11
468.1808208727779
 21
97.3771814581837
 31
0.0
  0
LINE
  5
237
330
1F
100
AcDbEntity
  8
1
  6
Continuous
 62
     7
370
     9
100
AcDbLine
 10
476.6974691927195
 20
74.28033729808433
 30
0.0
 11
476.6974691927195
 21
97.37718145818373
 31
0.0
  0
LINE
  5
238
330
1F
100
AcDbEntity
  8
1
  6
Continuous
 62
     7
370
     9
100
AcDbLine
 10
468.8410688213954
 20
92.0134178165605
 30
0.0
 11
476.0372212441019
 21
92.0134178165605
 31
0.0
  0
ARC
  5
239
330
1F
100
AcDbEntity
  8
1
  6
Continuous
 62
     7
370
     9
100
AcDbCircle
 10
464.2830863882602
 20
96.22874719123406
 30
0.0
 40
12.1560586444885
100
AcDbArc
 50
345.2253559469773
 51
14.77464405302305
  0
ARC
  5
23A
330
1F
100
AcDbEntity
  8
1
  6
Continuous
 62
     7
370
     9
100
AcDbCircle
 10
467.9391450327487
 20
73.84262416331892
 30
0.0
 40
0.5
100
AcDbArc
 50
0.0
 51
61.09546469217476
  0
ARC
  5
23B
330
1F
100
AcDbEntity
  8
1
  6
Continuous
 62
     7
370
     9
100
AcDbCircle
 10
467.9391450327487
 20
97.81489459294913
 30
0.0
 40
0.5
100
AcDbArc
 50
298.9045353078249
 51
0.0
  0
ARC
  5
23C
330
1F
100
AcDbEntity
  8
1
  6
Continuous
 62
     7
370
     9
100
AcDbCircle
 10
428.6545353419253
 20
85.82875937813402
 30
0.0
 40
47.78460969082335
100
AcDbArc
 50
0.0
 51
7.436530181441875
  0
ARC
  5
23D
330
1F
100
AcDbEntity
  8
1
  6
Continuous
 62
     7
370
     9
100
AcDbCircle
 10
464.2830863882602
 20
75.428771565034
 30
0.0
 40
12.1560586444885
100
AcDbArc
 50
345.2253559469773
 51
14.77464405302312
  0
ARC
  5
23E
330
1F
100
AcDbEntity
  8
1
  6
Continuous
 62
     7
370
     9
100
AcDbCircle
 10
428.6545353419253
 20
85.82875937813402
 30
0.0
 40
47.78460969082335
100
AcDbArc
 50
352.5634698185585
 51
0.0
  0
ARC
  5
23F
330
1F
100
AcDbEntity
  8
1
  6
Continuous
 62
     7
370
     9
100
AcDbCircle
 10
480.5952036772371
 20
75.428771565034
 30
0.0
 40
12.1560586444885
100
AcDbArc
 50
165.2253559469772
 51
194.7746440530234
  0
ARC
  5
240
330
1F
100
AcDbEntity
  8
1
  6
Continuous
 62
     7
370
     9
100
AcDbCircle
 10
476.9391450327487
 20
97.81489459294913
 30
0.0
 40
0.5
100
AcDbArc
 50
179.9999999999998
 51
241.0954646921744
  0
ARC
  5
241
330
1F
100
AcDbEntity
  8
1
  6
Continuous
 62
     7
370
     9
100
AcDbCircle
 10
516.223754723572
 20
85.82875937813402
 30
0.0
 40
47.78460969082335
100
AcDbArc
 50
180.0000000000004
 51
187.4365301814423
  0
ARC
  5
242
330
1F
100
AcDbEntity
  8
1
  6
Continuous
 62
     7
370
     9
100
AcDbCircle
 10
476.9391450327487
 20
73.84262416331892
 30
0.0
 40
0.5
100
AcDbArc
 50
118.904535307826
 51
179.9999999999998
  0
ARC
  5
243
330
1F
100
AcDbEntity
  8
1
  6
Continuous
 62
     7
370
     9
100
AcDbCircle
 10
516.223754723572
 20
85.82875937813402
 30
0.0
 40
47.78460969082335
100
AcDbArc
 50
172.5634698185581
 51
179.9999999999999
  0
ARC
  5
244
330
1F
100
AcDbEntity
  8
1
  6
Continuous
 62
     7
370
     9
100
AcDbCircle
 10
480.5952036772371
 20
96.22874719123406
 30
0.0
 40
12.1560586444885
100
AcDbArc
 50
165.225355946977
 51
194.7746440530233
  0
LINE
  5
245
330
1F
100
AcDbEntity
  8
1
  6
Continuous
 62
     7
370
     9
100
AcDbLine
 10
512.4391450327486
 20
92.0134178165605
 30
0.0
 11
512.4391450327486
 21
79.64410093970754
 31
0.0
  0
LINE
  5
246
330
1F
100
AcDbEntity
  8
1
  6
Continuous
 62
     7
370
     9
100
AcDbLine
 10
513.0830737113414
 20
93.12873500433408
 30
0.0
 11
523.7952163541557
 21
99.31339344276053
 31
0.0
  0
LINE
  5
247
330
1F
100
AcDbEntity
  8
1
  6
Continuous
 62
     7
370
     9
100
AcDbLine
 10
535.7952163541557
 20
93.12873500433413
 30
0.0
 11
525.0830737113415
 21
99.31339344276053
 31
0.0
  0
LINE
  5
248
330
1F
100
AcDbEntity
  8
1
  6
Continuous
 62
     7
370
     9
100
AcDbLine
 10
536.4391450327486
 20
92.0134178165605
 30
0.0
 11
536.4391450327486
 21
79.64410093970754
 31
0.0
  0
LINE
  5
249
330
1F
100
AcDbEntity
  8
1
  6
Continuous
 62
     7
370
     9
100
AcDbLine
 10
525.083073711341
 20
72.34412531350749
 30
0.0
 11
535.795216354156
 21
78.5287837519344
 31
0.0
  0
LINE
  5
24A
330
1F
100
AcDbEntity
  8
1
  6
Continuous
 62
     7
370
     9
100
AcDbLine
 10
523.795216354156
 20
72.3441253135075
 30
0.0
 11
513.0830737113413
 21
78.5287837519342
 31
0.0
  0
CIRCLE
  5
24B
330
1F
100
AcDbEntity
  8
1
  6
Continuous
 62
     7
370
     9
100
AcDbCircle
 10
524.4391450327486
 20
85.82875937813402
 30
0.0
 40
11.99999999999989
  0
CIRCLE
  5
24C
330
1F
100
AcDbEntity
  8
1
  6
Continuous
 62
     7
370
     9
100
AcDbCircle
 10
524.4391450327486
 20
85.82875937813402
 30
0.0
 40
7.25
  0
CIRCLE
  5
24D
330
1F
100
AcDbEntity
  8
1
  6
Continuous
 62
     7
370
     9
100
AcDbCircle
 10
524.4391450327486
 20
85.82875937813402
 30
0.0
 40
7.75
  0
CIRCLE
  5
24E
330
1F
100
AcDbEntity
  8
1
  6
Continuous
 62
     7
370
     9
100
AcDbCircle
 10
524.4391450327486
 20
85.82875937813402
 30
0.0
 40
8.699999999999989
  0
ARC
  5
24F
330
1F
100
AcDbEntity
  8
1
  6
Continuous
 62
     7
370
     9
100
AcDbCircle
 10
524.4391450327486
 20
85.82875937813402
 30
0.0
 40
13.5
100
AcDbArc
 50
267.2660444507345
 51
272.7339555492657
  0
ARC
  5
250
330
1F
100
AcDbEntity
  8
1
  6
Continuous
 62
     7
370
     9
100
AcDbCircle
 10
524.4391450327486
 20
85.82875937813402
 30
0.0
 40
13.5
100
AcDbArc
 50
327.2660444507349
 51
332.7339555492674
  0
ARC
  5
251
330
1F
100
AcDbEntity
  8
1
  6
Continuous
 62
     7
370
     9
100
AcDbCircle
 10
524.4391450327486
 20
85.82875937813402
 30
0.0
 40
13.5
100
AcDbArc
 50
27.26604445073279
 51
32.73395554926769
  0
ARC
  5
252
330
1F
100
AcDbEntity
  8
1
  6
Continuous
 62
     7
370
     9
100
AcDbCircle
 10
524.4391450327486
 20
85.82875937813402
 30
0.0
 40
13.5
100
AcDbArc
 50
87.26604445073248
 51
92.73395554926705
  0
ARC
  5
253
330
1F
100
AcDbEntity
  8
1
  6
Continuous
 62
     7
370
     9
100
AcDbCircle
 10
524.4391450327486
 20
85.82875937813402
 30
0.0
 40
13.5
100
AcDbArc
 50
147.2660444507328
 51
152.7339555492672
  0
ARC
  5
254
330
1F
100
AcDbEntity
  8
1
  6
Continuous
 62
     7
370
     9
100
AcDbCircle
 10
524.4391450327486
 20
85.82875937813402
 30
0.0
 40
13.5
100
AcDbArc
 50
207.2660444507333
 51
212.7339555492666
  0
CIRCLE
  5
255
330
1F
100
AcDbEntity
  8
1
  6
Continuous
 62
     7
370
     9
100
AcDbCircle
 10
524.4391450327486
 20
85.82875937813402
 30
0.0
 40
9.3155
  0
CIRCLE
  5
256
330
1F
100
AcDbEntity
  8
1
  6
Continuous
 62
     7
370
     9
100
AcDbCircle
 10
524.4391450327486
 20
85.82875937813402
 30
0.0
 40
10.47749999999999
  0
LINE
  5
257
330
1F
100
AcDbEntity
  8
7
  6
DASHDOT
 62
     4
370
     9
100
AcDbLine
 10
448.4391450327487
 20
85.82875937813402
 30
0.0
 11
496.4391450327487
 21
85.82875937813402
 31
0.0
  0
LINE
  5
258
330
1F
100
AcDbEntity
  8
7
  6
PHANTOM
 62
     4
370
     9
100
AcDbLine
 10
460.5991450327487
 20
96.36841309667541
 30
0.0
 11
460.5991450327487
 21
75.28910565959264
 31
0.0
  0
LINE
  5
259
330
1F
100
AcDbEntity
  8
7
  6
PHANTOM
 62
     4
370
     9
100
AcDbLine
 10
484.2791450327487
 20
96.36841309667541
 30
0.0
 11
484.2791450327487
 21
77.12875937813402
 31
0.0
  0
LINE
  5
25A
330
1F
100
AcDbEntity
  8
7
  6
DASHDOT
 62
     4
370
     9
100
AcDbLine
 10
524.4391450327486
 20
103.328759378134
 30
0.0
 11
524.4391450327486
 21
68.32875937813402
 31
0.0
  0
LINE
  5
25B
330
1F
100
AcDbEntity
  8
7
  6
DASHDOT
 62
     4
370
     9
100
AcDbLine
 10
508.4391450327486
 20
85.82875937813402
 30
0.0
 11
540.4391450327486
 21
85.82875937813402
 31
0.0
  0
LINE
  5
25C
330
1F
100
AcDbEntity
  8
1
  6
Continuous
 62
     7
370
     9
100
AcDbLine
 10
633.6213234150255
 20
104.2384002813173
 30
0.0
 11
640.817475837732
 21
104.2384002813173
 31
0.0
  0
LINE
  5
25D
330
1F
100
AcDbEntity
  8
1
  6
Continuous
 62
     7
370
     9
100
AcDbLine
 10
633.6213234150255
 20
81.47452565208295
 30
0.0
 11
633.6213234150255
 21
79.06296924106032
 31
0.0
  0
LINE
  5
25E
330
1F
100
AcDbEntity
  8
1
  6
Continuous
 62
     7
370
     9
100
AcDbLine
 10
640.817475837732
 20
104.2384002813173
 30
0.0
 11
641.1772364942556
 21
102.8957552326069
 31
0.0
  0
LINE
  5
25F
330
1F
100
AcDbEntity
  8
1
  6
Continuous
 62
     7
370
     9
100
AcDbLine
 10
640.817475837732
 20
81.47452565208295
 30
0.0
 11
640.817475837732
 21
79.06296924106032
 31
0.0
  0
LINE
  5
260
330
1F
100
AcDbEntity
  8
1
  6
Continuous
 62
     7
370
     9
100
AcDbLine
 10
659.2193996263787
 20
76.83840028131732
 30
0.0
 11
657.6476060040444
 21
75.26660665898304
 31
0.0
  0
LINE
  5
261
330
1F
100
AcDbEntity
  8
1
  6
Continuous
 62
     7
370
     9
100
AcDbLine
 10
657.6476060040444
 20
101.2101939036515
 30
0.0
 11
642.5615791718122
 21
101.6816558020691
 31
0.0
  0
LINE
  5
262
330
1F
100
AcDbEntity
  8
1
  6
Continuous
 62
     7
370
     9
100
AcDbLine
 10
642.5615791718122
 20
101.6816558020691
 30
0.0
 11
642.082157653229
 21
102.5120382304969
 31
0.0
  0
LINE
  5
263
330
1F
100
AcDbEntity
  8
1
  6
Continuous
 62
     7
370
     9
100
AcDbLine
 10
642.5615791718122
 20
74.79514476056552
 30
0.0
 11
642.082157653229
 21
73.96476233213772
 31
0.0
  0
LINE
  5
264
330
1F
100
AcDbEntity
  8
1
  6
Continuous
 62
     7
370
     9
100
AcDbLine
 10
657.6476060040444
 20
75.26660665898305
 30
0.0
 11
642.5615791718122
 21
74.79514476056553
 31
0.0
  0
LINE
  5
265
330
1F
100
AcDbEntity
  8
1
  6
Continuous
 62
     7
370
     9
100
AcDbLine
 10
658.8470918086813
 20
76.46609246361987
 30
0.0
 11
644.6893996263788
 21
76.0236424727967
 31
0.0
  0
LINE
  5
266
330
1F
100
AcDbEntity
  8
1
  6
Continuous
 62
     7
370
     9
100
AcDbLine
 10
644.6893996263788
 20
74.8616424727967
 30
0.0
 11
644.6893996263788
 21
101.6151580898379
 31
0.0
  0
LINE
  5
267
330
1F
100
AcDbEntity
  8
1
  6
Continuous
 62
     7
370
     9
100
AcDbLine
 10
644.6893996263788
 20
76.0236424727967
 30
0.0
 11
642.5615791718122
 21
74.79514476056553
 31
0.0
  0
LINE
  5
268
330
1F
100
AcDbEntity
  8
1
  6
Continuous
 62
     7
370
     9
100
AcDbLine
 10
657.6476060040444
 20
75.26660665898304
 30
0.0
 11
657.6476060040444
 21
101.2101939036515
 31
0.0
  0
LINE
  5
269
330
1F
100
AcDbEntity
  8
1
  6
Continuous
 62
     7
370
     9
100
AcDbLine
 10
642.5615791718122
 20
74.8616424727967
 30
0.0
 11
642.5615791718122
 21
101.6816558020691
 31
0.0
  0
LINE
  5
26A
330
1F
100
AcDbEntity
  8
1
  6
Continuous
 62
     7
370
     9
100
AcDbLine
 10
631.8772200809452
 20
74.8616424727967
 30
0.0
 11
631.8772200809452
 21
101.6816558020691
 31
0.0
  0
LINE
  5
26B
330
1F
100
AcDbEntity
  8
1
  6
Continuous
 62
     7
370
     9
100
AcDbLine
 10
616.7911932487131
 20
75.26660665898304
 30
0.0
 11
616.7911932487131
 21
101.2101939036515
 31
0.0
  0
LINE
  5
26C
330
1F
100
AcDbEntity
  8
1
  6
Continuous
 62
     7
370
     9
100
AcDbLine
 10
629.7493996263787
 20
76.0236424727967
 30
0.0
 11
631.8772200809452
 21
74.79514476056553
 31
0.0
  0
LINE
  5
26D
330
1F
100
AcDbEntity
  8
1
  6
Continuous
 62
     7
370
     9
100
AcDbLine
 10
629.7493996263787
 20
74.8616424727967
 30
0.0
 11
629.7493996263787
 21
101.6151580898379
 31
0.0
  0
LINE
  5
26E
330
1F
100
AcDbEntity
  8
1
  6
Continuous
 62
     7
370
     9
100
AcDbLine
 10
615.5917074440762
 20
76.46609246361987
 30
0.0
 11
629.7493996263787
 21
76.0236424727967
 31
0.0
  0
LINE
  5
26F
330
1F
100
AcDbEntity
  8
1
  6
Continuous
 62
     7
370
     9
100
AcDbLine
 10
616.7911932487131
 20
75.26660665898305
 30
0.0
 11
631.8772200809452
 21
74.79514476056553
 31
0.0
  0
LINE
  5
270
330
1F
100
AcDbEntity
  8
1
  6
Continuous
 62
     7
370
     9
100
AcDbLine
 10
631.8772200809452
 20
74.79514476056552
 30
0.0
 11
632.3566415995284
 21
73.96476233213772
 31
0.0
  0
LINE
  5
271
330
1F
100
AcDbEntity
  8
1
  6
Continuous
 62
     7
370
     9
100
AcDbLine
 10
659.2193996263787
 20
99.63840028131727
 30
0.0
 11
659.2193996263787
 21
76.83840028131732
 31
0.0
  0
LINE
  5
272
330
1F
100
AcDbEntity
  8
1
  6
Continuous
 62
     7
370
     9
100
AcDbLine
 10
659.2193996263787
 20
99.63840028131727
 30
0.0
 11
657.6476060040444
 21
101.2101939036515
 31
0.0
  0
LINE
  5
273
330
1F
100
AcDbEntity
  8
1
  6
Continuous
 62
     7
370
     9
100
AcDbLine
 10
641.2193996263787
 20
88.2384002813173
 30
0.0
 11
641.2193996263787
 21
73.73840028131747
 31
0.0
  0
LINE
  5
274
330
1F
100
AcDbEntity
  8
1
  6
Continuous
 62
     7
370
     9
100
AcDbLine
 10
633.6213234150255
 20
72.2384002813173
 30
0.0
 11
640.817475837732
 21
72.2384002813173
 31
0.0
  0
LINE
  5
275
330
1F
100
AcDbEntity
  8
1
  6
Continuous
 62
     7
370
     9
100
AcDbLine
 10
633.6213234150255
 20
79.06296924106032
 30
0.0
 11
640.817475837732
 21
79.06296924106032
 31
0.0
  0
LINE
  5
276
330
1F
100
AcDbEntity
  8
1
  6
Continuous
 62
     7
370
     9
100
AcDbLine
 10
633.6213234150255
 20
81.47452565208295
 30
0.0
 11
640.817475837732
 21
81.47452565208295
 31
0.0
  0
LINE
  5
277
330
1F
100
AcDbEntity
  8
1
  6
Continuous
 62
     7
370
     9
100
AcDbLine
 10
641.2193996263787
 20
76.83840028131729
 30
0.0
 11
641.2193996263787
 21
102.7891657020849
 31
0.0
  0
LINE
  5
278
330
1F
100
AcDbEntity
  8
1
  6
Continuous
 62
     7
370
     9
100
AcDbLine
 10
633.6213234150255
 20
72.23840028131728
 30
0.0
 11
633.2615627585019
 21
73.58104533002764
 31
0.0
  0
LINE
  5
279
330
1F
100
AcDbEntity
  8
1
  6
Continuous
 62
     7
370
     9
100
AcDbLine
 10
632.793870496138
 20
102.5253980023377
 30
0.0
 11
632.3566415995284
 21
102.5120382304969
 31
0.0
  0
LINE
  5
27A
330
1F
100
AcDbEntity
  8
1
  6
Continuous
 62
     7
370
     9
100
AcDbLine
 10
632.793870496138
 20
73.95140256029687
 30
0.0
 11
632.3566415995284
 21
73.96476233213772
 31
0.0
  0
LINE
  5
27B
330
1F
100
AcDbEntity
  8
1
  6
Continuous
 62
     7
370
     9
100
AcDbLine
 10
633.2193996263787
 20
76.83840028131729
 30
0.0
 11
633.2193996263787
 21
88.2384002813173
 31
0.0
  0
LINE
  5
27C
330
1F
100
AcDbEntity
  8
1
  6
Continuous
 62
     7
370
     9
100
AcDbLine
 10
633.2193996263787
 20
102.7891657020849
 30
0.0
 11
633.2193996263787
 21
73.73840028131747
 31
0.0
  0
LINE
  5
27D
330
1F
100
AcDbEntity
  8
1
  6
Continuous
 62
     7
370
     9
100
AcDbLine
 10
615.2193996263787
 20
99.63840028131727
 30
0.0
 11
616.7911932487131
 21
101.2101939036515
 31
0.0
  0
LINE
  5
27E
330
1F
100
AcDbEntity
  8
1
  6
Continuous
 62
     7
370
     9
100
AcDbLine
 10
615.2193996263787
 20
99.6384002813173
 30
0.0
 11
615.2193996263787
 21
76.83840028131732
 31
0.0
  0
LINE
  5
27F
330
1F
100
AcDbEntity
  8
1
  6
Continuous
 62
     7
370
     9
100
AcDbLine
 10
633.6213234150255
 20
104.2384002813173
 30
0.0
 11
633.2615627585019
 21
102.8957552326069
 31
0.0
  0
LINE
  5
280
330
1F
100
AcDbEntity
  8
1
  6
Continuous
 62
     7
370
     9
100
AcDbLine
 10
615.2193996263787
 20
76.83840028131732
 30
0.0
 11
616.7911932487131
 21
75.26660665898304
 31
0.0
  0
LINE
  5
281
330
1F
100
AcDbEntity
  8
1
  6
Continuous
 62
     7
370
     9
100
AcDbLine
 10
640.817475837732
 20
72.2384002813173
 30
0.0
 11
641.1772364942556
 21
73.58104533002765
 31
0.0
  0
LINE
  5
282
330
1F
100
AcDbEntity
  8
1
  6
Continuous
 62
     7
370
     9
100
AcDbLine
 10
641.6449287566195
 20
102.5253980023377
 30
0.0
 11
642.082157653229
 21
102.5120382304969
 31
0.0
  0
LINE
  5
283
330
1F
100
AcDbEntity
  8
1
  6
Continuous
 62
     7
370
     9
100
AcDbLine
 10
641.6449287566195
 20
73.95140256029687
 30
0.0
 11
642.082157653229
 21
73.96476233213772
 31
0.0
  0
LINE
  5
284
330
1F
100
AcDbEntity
  8
1
  6
Continuous
 62
     7
370
     9
100
AcDbLine
 10
631.8772200809452
 20
101.6816558020691
 30
0.0
 11
632.3566415995284
 21
102.5120382304969
 31
0.0
  0
LINE
  5
285
330
1F
100
AcDbEntity
  8
1
  6
Continuous
 62
     7
370
     9
100
AcDbLine
 10
616.7911932487131
 20
101.2101939036515
 30
0.0
 11
631.8772200809452
 21
101.6816558020691
 31
0.0
  0
LINE
  5
286
330
1F
100
AcDbEntity
  8
1
  6
Continuous
 62
     7
370
     9
100
AcDbLine
 10
632.3566415995284
 20
73.96476233213771
 30
0.0
 11
632.3566415995284
 21
102.5120382304969
 31
0.0
  0
LINE
  5
287
330
1F
100
AcDbEntity
  8
1
  6
Continuous
 62
     7
370
     9
100
AcDbLine
 10
642.082157653229
 20
73.96476233213772
 30
0.0
 11
642.082157653229
 21
102.5120382304968
 31
0.0
  0
LINE
  5
288
330
1F
100
AcDbEntity
  8
1
  6
Continuous
 62
     7
370
     9
100
AcDbLine
 10
633.6213234150255
 20
95.00227491055165
 30
0.0
 11
640.817475837732
 21
95.00227491055165
 31
0.0
  0
LINE
  5
289
330
1F
100
AcDbEntity
  8
1
  6
Continuous
 62
     7
370
     9
100
AcDbLine
 10
633.6213234150255
 20
97.41383132157429
 30
0.0
 11
640.817475837732
 21
97.41383132157429
 31
0.0
  0
LINE
  5
28A
330
1F
100
AcDbEntity
  8
1
  6
Continuous
 62
     7
370
     9
100
AcDbLine
 10
629.7493996263787
 20
100.4531580898379
 30
0.0
 11
631.8772200809452
 21
101.6816558020691
 31
0.0
  0
LINE
  5
28B
330
1F
100
AcDbEntity
  8
1
  6
Continuous
 62
     7
370
     9
100
AcDbLine
 10
615.5917074440762
 20
100.0107080990147
 30
0.0
 11
629.7493996263787
 21
100.4531580898379
 31
0.0
  0
LINE
  5
28C
330
1F
100
AcDbEntity
  8
1
  6
Continuous
 62
     7
370
     9
100
AcDbLine
 10
658.8470918086813
 20
100.0107080990147
 30
0.0
 11
644.6893996263788
 21
100.4531580898379
 31
0.0
  0
LINE
  5
28D
330
1F
100
AcDbEntity
  8
1
  6
Continuous
 62
     7
370
     9
100
AcDbLine
 10
644.6893996263788
 20
100.4531580898379
 30
0.0
 11
642.5615791718122
 21
101.6816558020691
 31
0.0
  0
LINE
  5
28E
330
1F
100
AcDbEntity
  8
1
  6
Continuous
 62
     7
370
     9
100
AcDbLine
 10
633.6213234150255
 20
95.00227491055165
 30
0.0
 11
633.6213234150255
 21
97.41383132157429
 31
0.0
  0
LINE
  5
28F
330
1F
100
AcDbEntity
  8
1
  6
Continuous
 62
     7
370
     9
100
AcDbLine
 10
640.817475837732
 20
95.00227491055165
 30
0.0
 11
640.817475837732
 21
97.41383132157429
 31
0.0
  0
ARC
  5
290
330
1F
100
AcDbEntity
  8
1
  6
Continuous
 62
     7
370
     9
100
AcDbCircle
 10
647.9053033187178
 20
75.65068476118881
 30
0.0
 40
14.68590369233898
100
AcDbArc
 50
166.5644751510654
 51
193.435524848935
  0
ARC
  5
291
330
1F
100
AcDbEntity
  8
1
  6
Continuous
 62
     7
370
     9
100
AcDbCircle
 10
690.33413633612
 20
88.2384002813173
 30
0.0
 40
57.11473670974119
100
AcDbArc
 50
180.0000000000004
 51
186.801276136633
  0
ARC
  5
292
330
1F
100
AcDbEntity
  8
1
  6
Continuous
 62
     7
370
     9
100
AcDbCircle
 10
632.7785998453573
 20
73.45163580747639
 30
0.0
 40
0.5
100
AcDbArc
 50
14.99999999999917
 51
88.24984016467636
  0
ARC
  5
293
330
1F
100
AcDbEntity
  8
1
  6
Continuous
 62
     7
370
     9
100
AcDbCircle
 10
632.7785998453573
 20
103.0251647551582
 30
0.0
 40
0.5
100
AcDbArc
 50
271.7501598353232
 51
344.9999999999989
  0
ARC
  5
294
330
1F
100
AcDbEntity
  8
1
  6
Continuous
 62
     7
370
     9
100
AcDbCircle
 10
641.6601994074001
 20
103.0251647551582
 30
0.0
 40
0.5
100
AcDbArc
 50
195.0000000000004
 51
268.249840164676
  0
ARC
  5
295
330
1F
100
AcDbEntity
  8
1
  6
Continuous
 62
     7
370
     9
100
AcDbCircle
 10
641.6601994074001
 20
73.45163580747639
 30
0.0
 40
0.5
100
AcDbArc
 50
91.75015983532364
 51
165.0000000000008
  0
ARC
  5
296
330
1F
100
AcDbEntity
  8
1
  6
Continuous
 62
     7
370
     9
100
AcDbCircle
 10
584.1046629166375
 20
88.2384002813173
 30
0.0
 40
57.11473670974119
100
AcDbArc
 50
353.1987238633678
 51
0.0
  0
ARC
  5
297
330
1F
100
AcDbEntity
  8
1
  6
Continuous
 62
     7
370
     9
100
AcDbCircle
 10
626.5334959340397
 20
75.65068476118881
 30
0.0
 40
14.68590369233898
100
AcDbArc
 50
346.5644751510658
 51
13.43552484893461
  0
ARC
  5
298
330
1F
100
AcDbEntity
  8
1
  6
Continuous
 62
     7
370
     9
100
AcDbCircle
 10
584.1046629166375
 20
88.2384002813173
 30
0.0
 40
57.11473670974119
100
AcDbArc
 50
0.0
 51
6.801276136632523
  0
ARC
  5
299
330
1F
100
AcDbEntity
  8
1
  6
Continuous
 62
     7
370
     9
100
AcDbCircle
 10
690.33413633612
 20
88.2384002813173
 30
0.0
 40
57.11473670974119
100
AcDbArc
 50
173.1987238633674
 51
179.9999999999999
  0
ARC
  5
29A
330
1F
100
AcDbEntity
  8
1
  6
Continuous
 62
     7
370
     9
100
AcDbCircle
 10
647.9053033187178
 20
100.8261158014458
 30
0.0
 40
14.68590369233898
100
AcDbArc
 50
166.5644751510654
 51
193.435524848935
  0
ARC
  5
29B
330
1F
100
AcDbEntity
  8
1
  6
Continuous
 62
     7
370
     9
100
AcDbCircle
 10
626.5334959340397
 20
100.8261158014458
 30
0.0
 40
14.68590369233898
100
AcDbArc
 50
346.5644751510658
 51
13.43552484893467
  0
LINE
  5
29C
330
1F
100
AcDbEntity
  8
1
  6
Continuous
 62
     7
370
     9
100
AcDbLine
 10
679.2193996263787
 20
95.00227491055165
 30
0.0
 11
679.2193996263787
 21
81.47452565208295
 31
0.0
  0
LINE
  5
29D
330
1F
100
AcDbEntity
  8
1
  6
Continuous
 62
     7
370
     9
100
AcDbLine
 10
680.6117123694488
 20
97.41383132157452
 30
0.0
 11
692.3270868833087
 21
104.1777059508088
 31
0.0
  0
LINE
  5
29E
330
1F
100
AcDbEntity
  8
1
  6
Continuous
 62
     7
370
     9
100
AcDbLine
 10
706.8270868833087
 20
97.41383132157458
 30
0.0
 11
695.1117123694488
 21
104.1777059508088
 31
0.0
  0
LINE
  5
29F
330
1F
100
AcDbEntity
  8
1
  6
Continuous
 62
     7
370
     9
100
AcDbLine
 10
708.2193996263787
 20
95.00227491055165
 30
0.0
 11
708.2193996263787
 21
81.47452565208295
 31
0.0
  0
LINE
  5
2A0
330
1F
100
AcDbEntity
  8
1
  6
Continuous
 62
     7
370
     9
100
AcDbLine
 10
695.1117123694484
 20
72.29909461182572
 30
0.0
 11
706.8270868833091
 21
79.0629692410605
 31
0.0
  0
LINE
  5
2A1
330
1F
100
AcDbEntity
  8
1
  6
Continuous
 62
     7
370
     9
100
AcDbLine
 10
692.3270868833089
 20
72.29909461182575
 30
0.0
 11
680.6117123694486
 21
79.06296924106032
 31
0.0
  0
CIRCLE
  5
2A2
330
1F
100
AcDbEntity
  8
1
  6
Continuous
 62
     7
370
     9
100
AcDbCircle
 10
693.7193996263787
 20
88.23840028131738
 30
0.0
 40
10.29999999999993
  0
CIRCLE
  5
2A3
330
1F
100
AcDbEntity
  8
1
  6
Continuous
 62
     7
370
     9
100
AcDbCircle
 10
693.7193996263787
 20
88.23840028131738
 30
0.0
 40
9.999999999999929
  0
CIRCLE
  5
2A4
330
1F
100
AcDbEntity
  8
1
  6
Continuous
 62
     7
370
     9
100
AcDbCircle
 10
693.7193996263787
 20
88.23840028131738
 30
0.0
 40
14.29834901554784
  0
CIRCLE
  5
2A5
330
1F
100
AcDbEntity
  8
1
  6
Continuous
 62
     7
370
     9
100
AcDbCircle
 10
693.7193996263787
 20
88.23840028131738
 30
0.0
 40
12.05849999999992
  0
CIRCLE
  5
2A6
330
1F
100
AcDbEntity
  8
1
  6
Continuous
 62
     7
370
     9
100
AcDbCircle
 10
693.7193996263787
 20
88.23840028131738
 30
0.0
 40
13.22049999999992
  0
ARC
  5
2A7
330
1F
100
AcDbEntity
  8
1
  6
Continuous
 62
     7
370
     9
100
AcDbCircle
 10
693.7193996263787
 20
88.2384002813173
 30
0.0
 40
16.0
100
AcDbArc
 50
205.0078332346854
 51
214.9921667653143
  0
ARC
  5
2A8
330
1F
100
AcDbEntity
  8
1
  6
Continuous
 62
     7
370
     9
100
AcDbCircle
 10
693.7193996263787
 20
88.2384002813173
 30
0.0
 40
16.0
100
AcDbArc
 50
25.00783323468516
 51
34.99216676531528
  0
CIRCLE
  5
2A9
330
1F
100
AcDbEntity
  8
1
  6
Continuous
 62
     7
370
     9
100
AcDbCircle
 10
693.7193996263787
 20
88.23840028131738
 30
0.0
 40
14.49999999999991
  0
ARC
  5
2AA
330
1F
100
AcDbEntity
  8
1
  6
Continuous
 62
     7
370
     9
100
AcDbCircle
 10
693.7193996263787
 20
88.2384002813173
 30
0.0
 40
16.0
100
AcDbArc
 50
145.0078332346849
 51
154.9921667653149
  0
ARC
  5
2AB
330
1F
100
AcDbEntity
  8
1
  6
Continuous
 62
     7
370
     9
100
AcDbCircle
 10
693.7193996263787
 20
88.2384002813173
 30
0.0
 40
16.0
100
AcDbArc
 50
85.00783323468487
 51
94.99216676531513
  0
ARC
  5
2AC
330
1F
100
AcDbEntity
  8
1
  6
Continuous
 62
     7
370
     9
100
AcDbCircle
 10
693.7193996263787
 20
88.2384002813173
 30
0.0
 40
16.0
100
AcDbArc
 50
325.0078332346872
 51
334.992166765315
  0
ARC
  5
2AD
330
1F
100
AcDbEntity
  8
1
  6
Continuous
 62
     7
370
     9
100
AcDbCircle
 10
693.7193996263787
 20
88.2384002813173
 30
0.0
 40
16.0
100
AcDbArc
 50
265.007833234687
 51
274.9921667653139
  0
CIRCLE
  5
2AE
330
1F
100
AcDbEntity
  8
1
  6
Continuous
 62
     7
370
     9
100
AcDbCircle
 10
693.7193996263787
 20
88.23840028131738
 30
0.0
 40
11.39999999999992
  0
LINE
  5
2AF
330
1F
100
AcDbEntity
  8
7
  6
DASHDOT
 62
     4
370
     9
100
AcDbLine
 10
612.2193996263787
 20
88.2384002813173
 30
0.0
 11
662.7544265661614
 21
88.2384002813173
 31
0.0
  0
LINE
  5
2B0
330
1F
100
AcDbEntity
  8
7
  6
PHANTOM
 62
     4
370
     9
100
AcDbLine
 10
624.7493996263787
 20
101.4589002813173
 30
0.0
 11
624.7493996263787
 21
75.01790028131731
 31
0.0
  0
LINE
  5
2B1
330
1F
100
AcDbEntity
  8
7
  6
PHANTOM
 62
     4
370
     9
100
AcDbLine
 10
649.6893996263788
 20
101.4589002813173
 30
0.0
 11
649.6893996263788
 21
75.0179002813173
 31
0.0
  0
LINE
  5
2B2
330
1F
100
AcDbEntity
  8
7
  6
DASHDOT
 62
     4
370
     9
100
AcDbLine
 10
675.2193996263787
 20
88.2384002813173
 30
0.0
 11
712.2193996263787
 21
88.2384002813173
 31
0.0
  0
LINE
  5
2B3
330
1F
100
AcDbEntity
  8
7
  6
DASHDOT
 62
     4
370
     9
100
AcDbLine
 10
693.7193996263787
 20
108.2384002813173
 30
0.0
 11
693.7193996263787
 21
67.7002825988506
 31
0.0
  0
LINE
  5
2B4
330
1F
100
AcDbEntity
  8
1
  6
Continuous
 62
     7
370
     9
100
AcDbLine
 10
812.6096734059098
 20
111.0253648348661
 30
0.0
 11
815.3179749999751
 21
112.5890034892464
 31
0.0
  0
LINE
  5
2B5
330
1F
100
AcDbEntity
  8
1
  6
Continuous
 62
     7
370
     9
100
AcDbLine
 10
831.0296734059098
 20
80.3343448450534
 30
0.0
 11
828.3213718118445
 21
78.7707061906731
 31
0.0
  0
LINE
  5
2B6
330
1F
100
AcDbEntity
  8
1
  6
Continuous
 62
     7
370
     9
100
AcDbLine
 10
828.3213718118445
 20
78.7707061906731
 30
0.0
 11
827.9101299642774
 21
78.05841441648845
 31
0.0
  0
LINE
  5
2B7
330
1F
100
AcDbEntity
  8
1
  6
Continuous
 62
     7
370
     9
100
AcDbLine
 10
847.8196734059098
 20
110.0798548399598
 30
0.0
 11
847.8196734059098
 21
81.27985483995975
 31
0.0
  0
LINE
  5
2B8
330
1F
100
AcDbEntity
  8
1
  6
Continuous
 62
     7
370
     9
100
AcDbLine
 10
797.780756592001
 20
79.31877165386852
 30
0.0
 11
815.3179749999751
 21
78.7707061906731
 31
0.0
  0
LINE
  5
2B9
330
1F
100
AcDbEntity
  8
1
  6
Continuous
 62
     7
370
     9
100
AcDbLine
 10
826.2837750210475
 20
104.3976527270411
 30
0.0
 11
826.2837750210475
 21
106.9094131645388
 31
0.0
  0
LINE
  5
2BA
330
1F
100
AcDbEntity
  8
1
  6
Continuous
 62
     7
370
     9
100
AcDbLine
 10
827.2873563604327
 20
113.3176060006746
 30
0.0
 11
827.9101299642774
 21
113.3012952634311
 31
0.0
  0
LINE
  5
2BB
330
1F
100
AcDbEntity
  8
1
  6
Continuous
 62
     7
370
     9
100
AcDbLine
 10
817.355571790772
 20
104.3976527270411
 30
0.0
 11
826.2837750210475
 21
104.3976527270411
 31
0.0
  0
LINE
  5
2BC
330
1F
100
AcDbEntity
  8
1
  6
Continuous
 62
     7
370
     9
100
AcDbLine
 10
845.8585902198186
 20
112.040938026051
 30
0.0
 11
847.8196734059098
 21
110.0798548399598
 31
0.0
  0
LINE
  5
2BD
330
1F
100
AcDbEntity
  8
1
  6
Continuous
 62
     7
370
     9
100
AcDbLine
 10
817.355571790772
 20
86.96205695287843
 30
0.0
 11
817.355571790772
 21
84.45029651538074
 31
0.0
  0
LINE
  5
2BE
330
1F
100
AcDbEntity
  8
1
  6
Continuous
 62
     7
370
     9
100
AcDbLine
 10
827.2873563604327
 20
78.04210367924487
 30
0.0
 11
827.9101299642774
 21
78.05841441648845
 31
0.0
  0
LINE
  5
2BF
330
1F
100
AcDbEntity
  8
1
  6
Continuous
 62
     7
370
     9
100
AcDbLine
 10
817.355571790772
 20
75.67985483995973
 30
0.0
 11
816.8218626154076
 21
77.6716845988857
 31
0.0
  0
LINE
  5
2C0
330
1F
100
AcDbEntity
  8
1
  6
Continuous
 62
     7
370
     9
100
AcDbLine
 10
845.8585902198186
 20
79.31877165386852
 30
0.0
 11
828.3213718118445
 21
78.7707061906731
 31
0.0
  0
LINE
  5
2C1
330
1F
100
AcDbEntity
  8
1
  6
Continuous
 62
     7
370
     9
100
AcDbLine
 10
816.8196734059098
 20
113.6801151006664
 30
0.0
 11
816.8196734059098
 21
77.67985483995999
 31
0.0
  0
LINE
  5
2C2
330
1F
100
AcDbEntity
  8
1
  6
Continuous
 62
     7
370
     9
100
AcDbLine
 10
845.8585902198186
 20
79.31877165386852
 30
0.0
 11
847.8196734059098
 21
81.27985483995975
 31
0.0
  0
LINE
  5
2C3
330
1F
100
AcDbEntity
  8
1
  6
Continuous
 62
     7
370
     9
100
AcDbLine
 10
831.0296734059098
 20
78.85534484505338
 30
0.0
 11
831.0296734059098
 21
112.5043648348661
 31
0.0
  0
LINE
  5
2C4
330
1F
100
AcDbEntity
  8
1
  6
Continuous
 62
     7
370
     9
100
AcDbLine
 10
817.3555717907722
 20
115.6798548399598
 30
0.0
 11
816.8218626154077
 21
113.6880250810338
 31
0.0
  0
LINE
  5
2C5
330
1F
100
AcDbEntity
  8
1
  6
Continuous
 62
     7
370
     9
100
AcDbLine
 10
797.7807565920011
 20
79.31877165386852
 30
0.0
 11
795.8196734059098
 21
81.27985483995975
 31
0.0
  0
LINE
  5
2C6
330
1F
100
AcDbEntity
  8
1
  6
Continuous
 62
     7
370
     9
100
AcDbLine
 10
816.3519904513869
 20
78.04210367924487
 30
0.0
 11
815.7292168475421
 21
78.05841441648845
 31
0.0
  0
LINE
  5
2C7
330
1F
100
AcDbEntity
  8
1
  6
Continuous
 62
     7
370
     9
100
AcDbLine
 10
797.780756592001
 20
112.040938026051
 30
0.0
 11
795.8196734059098
 21
110.0798548399598
 31
0.0
  0
LINE
  5
2C8
330
1F
100
AcDbEntity
  8
1
  6
Continuous
 62
     7
370
     9
100
AcDbLine
 10
817.355571790772
 20
104.3976527270411
 30
0.0
 11
817.355571790772
 21
106.9094131645388
 31
0.0
  0
LINE
  5
2C9
330
1F
100
AcDbEntity
  8
1
  6
Continuous
 62
     7
370
     9
100
AcDbLine
 10
831.0296734059098
 20
111.0253648348661
 30
0.0
 11
828.3213718118445
 21
112.5890034892464
 31
0.0
  0
LINE
  5
2CA
330
1F
100
AcDbEntity
  8
1
  6
Continuous
 62
     7
370
     9
100
AcDbLine
 10
816.3519904513869
 20
113.3176060006746
 30
0.0
 11
815.7292168475423
 21
113.3012952634311
 31
0.0
  0
LINE
  5
2CB
330
1F
100
AcDbEntity
  8
1
  6
Continuous
 62
     7
370
     9
100
AcDbLine
 10
795.8196734059098
 20
110.0798548399598
 30
0.0
 11
795.8196734059098
 21
81.27985483995975
 31
0.0
  0
LINE
  5
2CC
330
1F
100
AcDbEntity
  8
1
  6
Continuous
 62
     7
370
     9
100
AcDbLine
 10
817.3555717907722
 20
115.6798548399598
 30
0.0
 11
826.2837750210475
 21
115.6798548399598
 31
0.0
  0
LINE
  5
2CD
330
1F
100
AcDbEntity
  8
1
  6
Continuous
 62
     7
370
     9
100
AcDbLine
 10
826.2837750210475
 20
115.6798548399598
 30
0.0
 11
826.817484196412
 21
113.6880250810338
 31
0.0
  0
LINE
  5
2CE
330
1F
100
AcDbEntity
  8
1
  6
Continuous
 62
     7
370
     9
100
AcDbLine
 10
797.780756592001
 20
112.040938026051
 30
0.0
 11
815.3179749999751
 21
112.5890034892464
 31
0.0
  0
LINE
  5
2CF
330
1F
100
AcDbEntity
  8
1
  6
Continuous
 62
     7
370
     9
100
AcDbLine
 10
817.355571790772
 20
106.9094131645388
 30
0.0
 11
826.2837750210475
 21
106.9094131645388
 31
0.0
  0
LINE
  5
2D0
330
1F
100
AcDbEntity
  8
1
  6
Continuous
 62
     7
370
     9
100
AcDbLine
 10
826.8196734059098
 20
113.6798548399594
 30
0.0
 11
826.8196734059098
 21
77.67985483995999
 31
0.0
  0
LINE
  5
2D1
330
1F
100
AcDbEntity
  8
1
  6
Continuous
 62
     7
370
     9
100
AcDbLine
 10
845.8585902198186
 20
79.31877165386852
 30
0.0
 11
845.8585902198186
 21
112.040938026051
 31
0.0
  0
LINE
  5
2D2
330
1F
100
AcDbEntity
  8
1
  6
Continuous
 62
     7
370
     9
100
AcDbLine
 10
847.3853023584226
 20
80.84548379247254
 30
0.0
 11
831.0296734059098
 21
80.3343448450534
 31
0.0
  0
LINE
  5
2D3
330
1F
100
AcDbEntity
  8
1
  6
Continuous
 62
     7
370
     9
100
AcDbLine
 10
828.3213718118445
 20
78.7707061906731
 30
0.0
 11
828.3213718118445
 21
112.5890034892465
 31
0.0
  0
LINE
  5
2D4
330
1F
100
AcDbEntity
  8
1
  6
Continuous
 62
     7
370
     9
100
AcDbLine
 10
845.8585902198186
 20
112.040938026051
 30
0.0
 11
828.3213718118445
 21
112.5890034892464
 31
0.0
  0
LINE
  5
2D5
330
1F
100
AcDbEntity
  8
1
  6
Continuous
 62
     7
370
     9
100
AcDbLine
 10
815.3179749999751
 20
78.7707061906731
 30
0.0
 11
815.3179749999751
 21
112.5890034892464
 31
0.0
  0
LINE
  5
2D6
330
1F
100
AcDbEntity
  8
1
  6
Continuous
 62
     7
370
     9
100
AcDbLine
 10
796.254044453397
 20
80.84548379247254
 30
0.0
 11
812.6096734059099
 21
80.3343448450534
 31
0.0
  0
LINE
  5
2D7
330
1F
100
AcDbEntity
  8
1
  6
Continuous
 62
     7
370
     9
100
AcDbLine
 10
797.780756592001
 20
79.31877165386852
 30
0.0
 11
797.780756592001
 21
112.040938026051
 31
0.0
  0
LINE
  5
2D8
330
1F
100
AcDbEntity
  8
1
  6
Continuous
 62
     7
370
     9
100
AcDbLine
 10
812.6096734059098
 20
78.85534484505338
 30
0.0
 11
812.6096734059098
 21
112.5043648348661
 31
0.0
  0
LINE
  5
2D9
330
1F
100
AcDbEntity
  8
1
  6
Continuous
 62
     7
370
     9
100
AcDbLine
 10
815.3179749999751
 20
78.7707061906731
 30
0.0
 11
815.7292168475423
 21
78.05841441648845
 31
0.0
  0
LINE
  5
2DA
330
1F
100
AcDbEntity
  8
1
  6
Continuous
 62
     7
370
     9
100
AcDbLine
 10
812.6096734059098
 20
80.33434484505342
 30
0.0
 11
815.3179749999751
 21
78.7707061906731
 31
0.0
  0
LINE
  5
2DB
330
1F
100
AcDbEntity
  8
1
  6
Continuous
 62
     7
370
     9
100
AcDbLine
 10
796.254044453397
 20
110.514225887447
 30
0.0
 11
812.6096734059099
 21
111.0253648348661
 31
0.0
  0
LINE
  5
2DC
330
1F
100
AcDbEntity
  8
1
  6
Continuous
 62
     7
370
     9
100
AcDbLine
 10
815.3179749999751
 20
112.5890034892465
 30
0.0
 11
815.7292168475421
 21
113.3012952634311
 31
0.0
  0
LINE
  5
2DD
330
1F
100
AcDbEntity
  8
1
  6
Continuous
 62
     7
370
     9
100
AcDbLine
 10
847.3853023584226
 20
110.514225887447
 30
0.0
 11
831.0296734059098
 21
111.0253648348661
 31
0.0
  0
LINE
  5
2DE
330
1F
100
AcDbEntity
  8
1
  6
Continuous
 62
     7
370
     9
100
AcDbLine
 10
828.3213718118445
 20
112.5890034892464
 30
0.0
 11
827.9101299642774
 21
113.3012952634311
 31
0.0
  0
LINE
  5
2DF
330
1F
100
AcDbEntity
  8
1
  6
Continuous
 62
     7
370
     9
100
AcDbLine
 10
826.2837750210475
 20
75.67985483995976
 30
0.0
 11
826.817484196412
 21
77.6716845988857
 31
0.0
  0
LINE
  5
2E0
330
1F
100
AcDbEntity
  8
1
  6
Continuous
 62
     7
370
     9
100
AcDbLine
 10
826.2837750210475
 20
86.96205695287843
 30
0.0
 11
826.2837750210475
 21
84.45029651538074
 31
0.0
  0
LINE
  5
2E1
330
1F
100
AcDbEntity
  8
1
  6
Continuous
 62
     7
370
     9
100
AcDbLine
 10
817.355571790772
 20
86.96205695287843
 30
0.0
 11
826.2837750210475
 21
86.96205695287843
 31
0.0
  0
LINE
  5
2E2
330
1F
100
AcDbEntity
  8
1
  6
Continuous
 62
     7
370
     9
100
AcDbLine
 10
817.355571790772
 20
84.45029651538074
 30
0.0
 11
826.2837750210475
 21
84.45029651538074
 31
0.0
  0
LINE
  5
2E3
330
1F
100
AcDbEntity
  8
1
  6
Continuous
 62
     7
370
     9
100
AcDbLine
 10
817.355571790772
 20
75.67985483995976
 30
0.0
 11
826.2837750210475
 21
75.67985483995976
 31
0.0
  0
LINE
  5
2E4
330
1F
100
AcDbEntity
  8
1
  6
Continuous
 62
     7
370
     9
100
AcDbLine
 10
815.7292168475423
 20
78.05841441648842
 30
0.0
 11
815.7292168475423
 21
113.3012952634311
 31
0.0
  0
LINE
  5
2E5
330
1F
100
AcDbEntity
  8
1
  6
Continuous
 62
     7
370
     9
100
AcDbLine
 10
827.9101299642774
 20
78.05841441648845
 30
0.0
 11
827.9101299642774
 21
113.3012952634311
 31
0.0
  0
ARC
  5
2E6
330
1F
100
AcDbEntity
  8
1
  6
Continuous
 62
     7
370
     9
100
AcDbCircle
 10
755.6427588696776
 20
95.67985483995976
 30
0.0
 40
71.17691453623226
100
AcDbArc
 50
0.0
 51
7.035292196743353
  0
ARC
  5
2E7
330
1F
100
AcDbEntity
  8
1
  6
Continuous
 62
     7
370
     9
100
AcDbCircle
 10
887.996587942142
 20
95.67985483995976
 30
0.0
 40
71.17691453623226
100
AcDbArc
 50
179.9999999999999
 51
187.0352921967436
  0
ARC
  5
2E8
330
1F
100
AcDbEntity
  8
1
  6
Continuous
 62
     7
370
     9
100
AcDbCircle
 10
816.3388997022631
 20
77.54227507633446
 30
0.0
 40
0.5
100
AcDbArc
 50
15.00000000000074
 51
88.49973921828202
  0
ARC
  5
2E9
330
1F
100
AcDbEntity
  8
1
  6
Continuous
 62
     7
370
     9
100
AcDbCircle
 10
835.0296078129737
 20
80.06507567767024
 30
0.0
 40
18.20993440706392
100
AcDbArc
 50
166.0653673393514
 51
193.9346326606487
  0
ARC
  5
2EA
330
1F
100
AcDbEntity
  8
1
  6
Continuous
 62
     7
370
     9
100
AcDbCircle
 10
816.3388997022631
 20
113.8174346035851
 30
0.0
 40
0.5
100
AcDbArc
 50
271.5002607817176
 51
344.9999999999989
  0
ARC
  5
2EB
330
1F
100
AcDbEntity
  8
1
  6
Continuous
 62
     7
370
     9
100
AcDbCircle
 10
827.3004471095566
 20
113.8174346035851
 30
0.0
 40
0.5
100
AcDbArc
 50
195.0000000000004
 51
268.4997392182686
  0
ARC
  5
2EC
330
1F
100
AcDbEntity
  8
1
  6
Continuous
 62
     7
370
     9
100
AcDbCircle
 10
835.0296078129737
 20
111.2946340022493
 30
0.0
 40
18.20993440706392
100
AcDbArc
 50
166.0653673393517
 51
193.9346326606489
  0
ARC
  5
2ED
330
1F
100
AcDbEntity
  8
1
  6
Continuous
 62
     7
370
     9
100
AcDbCircle
 10
887.996587942142
 20
95.67985483995976
 30
0.0
 40
71.17691453623226
100
AcDbArc
 50
172.9647078032567
 51
180.0000000000004
  0
ARC
  5
2EE
330
1F
100
AcDbEntity
  8
1
  6
Continuous
 62
     7
370
     9
100
AcDbCircle
 10
808.6097389988458
 20
111.2946340022493
 30
0.0
 40
18.20993440706392
100
AcDbArc
 50
346.0653673393518
 51
13.93463266064839
  0
ARC
  5
2EF
330
1F
100
AcDbEntity
  8
1
  6
Continuous
 62
     7
370
     9
100
AcDbCircle
 10
808.6097389988458
 20
80.06507567767024
 30
0.0
 40
18.20993440706392
100
AcDbArc
 50
346.0653673393519
 51
13.93463266064848
  0
ARC
  5
2F0
330
1F
100
AcDbEntity
  8
1
  6
Continuous
 62
     7
370
     9
100
AcDbCircle
 10
827.3004471095566
 20
77.54227507633446
 30
0.0
 40
0.5
100
AcDbArc
 50
91.500260781731
 51
164.9999999999993
  0
ARC
  5
2F1
330
1F
100
AcDbEntity
  8
1
  6
Continuous
 62
     7
370
     9
100
AcDbCircle
 10
755.6427588696776
 20
95.67985483995976
 30
0.0
 40
71.17691453623226
100
AcDbArc
 50
352.9647078032571
 51
359.9999999999997
  0
LINE
  5
2F2
330
1F
100
AcDbEntity
  8
1
  6
Continuous
 62
     7
370
     9
100
AcDbLine
 10
884.0195078411808
 20
75.73249862829918
 30
0.0
 11
868.9198389706389
 21
84.45029651538074
 31
0.0
  0
LINE
  5
2F3
330
1F
100
AcDbEntity
  8
1
  6
Continuous
 62
     7
370
     9
100
AcDbLine
 10
886.9198389706387
 20
75.73249862829915
 30
0.0
 11
902.0195078411808
 21
84.45029651538091
 31
0.0
  0
LINE
  5
2F4
330
1F
100
AcDbEntity
  8
1
  6
Continuous
 62
     7
370
     9
100
AcDbLine
 10
867.4696734059098
 20
104.3976527270411
 30
0.0
 11
867.4696734059098
 21
86.96205695287843
 31
0.0
  0
LINE
  5
2F5
330
1F
100
AcDbEntity
  8
1
  6
Continuous
 62
     7
370
     9
100
AcDbLine
 10
903.4696734059098
 20
104.3976527270411
 30
0.0
 11
903.4696734059098
 21
86.96205695287843
 31
0.0
  0
LINE
  5
2F6
330
1F
100
AcDbEntity
  8
1
  6
Continuous
 62
     7
370
     9
100
AcDbLine
 10
902.0195078411805
 20
106.9094131645391
 30
0.0
 11
886.9198389706391
 21
115.6272110516203
 31
0.0
  0
LINE
  5
2F7
330
1F
100
AcDbEntity
  8
1
  6
Continuous
 62
     7
370
     9
100
AcDbLine
 10
868.9198389706391
 20
106.909413164539
 30
0.0
 11
884.0195078411805
 21
115.6272110516203
 31
0.0
  0
CIRCLE
  5
2F8
330
1F
100
AcDbEntity
  8
1
  6
Continuous
 62
     7
370
     9
100
AcDbCircle
 10
885.4696734059098
 20
95.67985483995976
 30
0.0
 40
17.99999999999977
  0
CIRCLE
  5
2F9
330
1F
100
AcDbEntity
  8
1
  6
Continuous
 62
     7
370
     9
100
AcDbCircle
 10
885.4696734059098
 20
95.67985483995976
 30
0.0
 40
15.1455
  0
CIRCLE
  5
2FA
330
1F
100
AcDbEntity
  8
1
  6
Continuous
 62
     7
370
     9
100
AcDbCircle
 10
885.4696734059098
 20
95.67985483995976
 30
0.0
 40
14.40000000000001
  0
CIRCLE
  5
2FB
330
1F
100
AcDbEntity
  8
1
  6
Continuous
 62
     7
370
     9
100
AcDbCircle
 10
885.4696734059098
 20
95.67985483995976
 30
0.0
 40
12.75
  0
CIRCLE
  5
2FC
330
1F
100
AcDbEntity
  8
1
  6
Continuous
 62
     7
370
     9
100
AcDbCircle
 10
885.4696734059098
 20
95.67985483995976
 30
0.0
 40
17.65000000000001
  0
ARC
  5
2FD
330
1F
100
AcDbEntity
  8
1
  6
Continuous
 62
     7
370
     9
100
AcDbCircle
 10
885.4696734059098
 20
95.67985483995976
 30
0.0
 40
20.0
100
AcDbArc
 50
205.8419327631675
 51
214.1580672368325
  0
ARC
  5
2FE
330
1F
100
AcDbEntity
  8
1
  6
Continuous
 62
     7
370
     9
100
AcDbCircle
 10
885.4696734059098
 20
95.67985483995976
 30
0.0
 40
20.0
100
AcDbArc
 50
265.8419327631681
 51
274.1580672368318
  0
ARC
  5
2FF
330
1F
100
AcDbEntity
  8
1
  6
Continuous
 62
     7
370
     9
100
AcDbCircle
 10
885.4696734059098
 20
95.67985483995976
 30
0.0
 40
20.0
100
AcDbArc
 50
325.8419327631688
 51
334.1580672368332
  0
ARC
  5
300
330
1F
100
AcDbEntity
  8
1
  6
Continuous
 62
     7
370
     9
100
AcDbCircle
 10
885.4696734059098
 20
95.67985483995976
 30
0.0
 40
20.0
100
AcDbArc
 50
25.84193276316716
 51
34.15806723683325
  0
ARC
  5
301
330
1F
100
AcDbEntity
  8
1
  6
Continuous
 62
     7
370
     9
100
AcDbCircle
 10
885.4696734059098
 20
95.67985483995976
 30
0.0
 40
20.0
100
AcDbArc
 50
85.84193276316691
 51
94.1580672368331
  0
ARC
  5
302
330
1F
100
AcDbEntity
  8
1
  6
Continuous
 62
     7
370
     9
100
AcDbCircle
 10
885.4696734059098
 20
95.67985483995976
 30
0.0
 40
20.0
100
AcDbArc
 50
145.8419327631669
 51
154.1580672368329
  0
CIRCLE
  5
303
330
1F
100
AcDbEntity
  8
1
  6
Continuous
 62
     7
370
     9
100
AcDbCircle
 10
885.4696734059098
 20
95.67985483995976
 30
0.0
 40
16.6245
  0
CIRCLE
  5
304
330
1F
100
AcDbEntity
  8
1
  6
Continuous
 62
     7
370
     9
100
AcDbCircle
 10
885.4696734059098
 20
95.67985483995976
 30
0.0
 40
13.25
  0
LINE
  5
305
330
1F
100
AcDbEntity
  8
7
  6
DASHDOT
 62
     4
370
     9
100
AcDbLine
 10
790.8196734059098
 20
95.67985483995976
 30
0.0
 11
851.8196734059098
 21
95.67985483995976
 31
0.0
  0
LINE
  5
306
330
1F
100
AcDbEntity
  8
7
  6
PHANTOM
 62
     4
370
     9
100
AcDbLine
 10
806.2096734059098
 20
112.3043548399597
 30
0.0
 11
806.2096734059098
 21
79.05535483995978
 31
0.0
  0
LINE
  5
307
330
1F
100
AcDbEntity
  8
7
  6
PHANTOM
 62
     4
370
     9
100
AcDbLine
 10
837.4296734059099
 20
112.3043548399597
 30
0.0
 11
837.4296734059099
 21
79.05535483995978
 31
0.0
  0
LINE
  5
308
330
1F
100
AcDbEntity
  8
7
  6
DASHDOT
 62
     4
370
     9
100
AcDbLine
 10
885.4696734059098
 20
120.1798548399598
 30
0.0
 11
885.4696734059098
 21
71.17985483995976
 31
0.0
  0
LINE
  5
309
330
1F
100
AcDbEntity
  8
7
  6
DASHDOT
 62
     4
370
     9
100
AcDbLine
 10
863.4696734059098
 20
95.67985483995976
 30
0.0
 11
907.4696734059098
 21
95.67985483995976
 31
0.0
  0
MTEXT
  5
30A
330
1F
100
AcDbEntity
  8
1
  6
Continuous
 62
     7
370
     9
100
AcDbMText
 10
853.4657181805965
 20
43.01895781021884
 30
0.0
 40
20.0
 41
49.02482482482482
 46
20.0
 71
     7
 72
     1
  1
{\fＭＳ 明朝;\T0.750000;25A}
 73
     1
 44
1.0
1001
ACAD
1000
ACAD_MTEXT_DEFINED_HEIGHT_BEGIN
1070
    46
1040
20.0
1000
ACAD_MTEXT_DEFINED_HEIGHT_END
  0
LINE
  5
30B
330
1F
100
AcDbEntity
  8
1
  6
Continuous
 62
     7
370
     9
100
AcDbLine
 10
354.1101520710051
 20
262.7267277182279
 30
0.0
 11
352.9261887700127
 21
262.6872622748615
 31
0.0
  0
LINE
  5
30C
330
1F
100
AcDbEntity
  8
1
  6
Continuous
 62
     7
370
     9
100
AcDbLine
 10
318.4088933972495
 20
264.255103643245
 30
0.0
 11
318.4088933972495
 21
311.3871980674859
 31
0.0
  0
LINE
  5
30D
330
1F
100
AcDbEntity
  8
1
  6
Continuous
 62
     7
370
     9
100
AcDbLine
 10
352.4428461851291
 20
314.8211508553654
 30
0.0
 11
351.6389986078358
 21
317.8211508553654
 31
0.0
  0
LINE
  5
30E
330
1F
100
AcDbEntity
  8
1
  6
Continuous
 62
     7
370
     9
100
AcDbLine
 10
338.9591418714352
 20
262.7369238221163
 30
0.0
 11
338.7660176967689
 21
262.743221349551
 31
0.0
  0
LINE
  5
30F
330
1F
100
AcDbEntity
  8
1
  6
Continuous
 62
     7
370
     9
100
AcDbLine
 10
354.6253572746359
 20
312.0232124034904
 30
0.0
 11
354.1101520710051
 21
312.9155739925029
 31
0.0
  0
LINE
  5
310
330
1F
100
AcDbEntity
  8
1
  6
Continuous
 62
     7
370
     9
100
AcDbLine
 10
352.4428461851291
 20
314.8211508553654
 30
0.0
 11
352.4428461851291
 21
260.8211508553654
 31
0.0
  0
LINE
  5
311
330
1F
100
AcDbEntity
  8
1
  6
Continuous
 62
     7
370
     9
100
AcDbLine
 10
376.4428461851291
 20
309.4211508553655
 30
0.0
 11
376.4428461851291
 21
266.2211508553654
 31
0.0
  0
LINE
  5
312
330
1F
100
AcDbEntity
  8
1
  6
Continuous
 62
     7
370
     9
100
AcDbLine
 10
376.0035111116127
 20
309.8604859288819
 30
0.0
 11
357.3428461851291
 21
310.4436608502718
 31
0.0
  0
LINE
  5
313
330
1F
100
AcDbEntity
  8
1
  6
Continuous
 62
     7
370
     9
100
AcDbLine
 10
357.3428461851291
 20
310.4436608502718
 30
0.0
 11
354.6345445910637
 21
312.0072995046521
 31
0.0
  0
LINE
  5
314
330
1F
100
AcDbEntity
  8
1
  6
Continuous
 62
     7
370
     9
100
AcDbLine
 10
376.4428461851291
 20
266.2211508553654
 30
0.0
 11
374.4767989730086
 21
264.255103643245
 31
0.0
  0
LINE
  5
315
330
1F
100
AcDbEntity
  8
1
  6
Continuous
 62
     7
370
     9
100
AcDbLine
 10
316.4428461851291
 20
309.4211508553655
 30
0.0
 11
318.4088933972495
 21
311.3871980674859
 31
0.0
  0
LINE
  5
316
330
1F
100
AcDbEntity
  8
1
  6
Continuous
 62
     7
370
     9
100
AcDbLine
 10
354.1101520710051
 20
312.9155739925029
 30
0.0
 11
352.9261887700129
 21
312.9550394358694
 31
0.0
  0
LINE
  5
317
330
1F
100
AcDbEntity
  8
1
  6
Continuous
 62
     7
370
     9
100
AcDbLine
 10
316.4428461851292
 20
266.2211508553654
 30
0.0
 11
318.4088933972496
 21
264.255103643245
 31
0.0
  0
LINE
  5
318
330
1F
100
AcDbEntity
  8
1
  6
Continuous
 62
     7
370
     9
100
AcDbLine
 10
376.4428461851291
 20
309.4211508553655
 30
0.0
 11
374.4767989730087
 21
311.3871980674859
 31
0.0
  0
LINE
  5
319
330
1F
100
AcDbEntity
  8
1
  6
Continuous
 62
     7
370
     9
100
AcDbLine
 10
338.7755402992532
 20
312.9155739925029
 30
0.0
 11
339.9595036002453
 21
312.9550394358694
 31
0.0
  0
LINE
  5
31A
330
1F
100
AcDbEntity
  8
1
  6
Continuous
 62
     7
370
     9
100
AcDbLine
 10
351.6389986078357
 20
300.8978476859875
 30
0.0
 11
351.6389986078357
 21
304.6654883422343
 31
0.0
  0
LINE
  5
31B
330
1F
100
AcDbEntity
  8
1
  6
Continuous
 62
     7
370
     9
100
AcDbLine
 10
316.4428461851291
 20
309.4211508553655
 30
0.0
 11
316.4428461851291
 21
266.2211508553654
 31
0.0
  0
LINE
  5
31C
330
1F
100
AcDbEntity
  8
1
  6
Continuous
 62
     7
370
     9
100
AcDbLine
 10
354.1013107267804
 20
262.7114140608237
 30
0.0
 11
354.1013107267804
 21
312.9158687039771
 31
0.0
  0
LINE
  5
31D
330
1F
100
AcDbEntity
  8
1
  6
Continuous
 62
     7
370
     9
100
AcDbLine
 10
338.7843816434778
 20
262.7114140608237
 30
0.0
 11
338.7843816434778
 21
312.930887649907
 31
0.0
  0
LINE
  5
31E
330
1F
100
AcDbEntity
  8
1
  6
Continuous
 62
     7
370
     9
100
AcDbLine
 10
335.5428461851291
 20
310.4436608502718
 30
0.0
 11
338.2511477791945
 21
312.0072995046521
 31
0.0
  0
LINE
  5
31F
330
1F
100
AcDbEntity
  8
1
  6
Continuous
 62
     7
370
     9
100
AcDbLine
 10
374.4767989730087
 20
264.255103643245
 30
0.0
 11
354.6345445910637
 21
263.6350022060788
 31
0.0
  0
LINE
  5
320
330
1F
100
AcDbEntity
  8
1
  6
Continuous
 62
     7
370
     9
100
AcDbLine
 10
376.0035111116127
 20
265.781815781849
 30
0.0
 11
357.3428461851291
 21
265.1986408604591
 31
0.0
  0
LINE
  5
321
330
1F
100
AcDbEntity
  8
1
  6
Continuous
 62
     7
370
     9
100
AcDbLine
 10
354.6345445910637
 20
263.6350022060788
 30
0.0
 11
354.1196746734893
 21
262.743221349551
 31
0.0
  0
LINE
  5
322
330
1F
100
AcDbEntity
  8
1
  6
Continuous
 62
     7
370
     9
100
AcDbLine
 10
357.3428461851291
 20
265.198640860459
 30
0.0
 11
354.6345445910637
 21
263.6350022060788
 31
0.0
  0
LINE
  5
323
330
1F
100
AcDbEntity
  8
1
  6
Continuous
 62
     7
370
     9
100
AcDbLine
 10
357.3428461851291
 20
263.7196408604591
 30
0.0
 11
357.3428461851291
 21
311.9226608502718
 31
0.0
  0
LINE
  5
324
330
1F
100
AcDbEntity
  8
1
  6
Continuous
 62
     7
370
     9
100
AcDbLine
 10
341.2466937624225
 20
300.8978476859875
 30
0.0
 11
341.2466937624225
 21
304.6654883422343
 31
0.0
  0
LINE
  5
325
330
1F
100
AcDbEntity
  8
1
  6
Continuous
 62
     7
370
     9
100
AcDbLine
 10
354.6345445910637
 20
263.6350022060788
 30
0.0
 11
354.6345445910637
 21
312.0072995046521
 31
0.0
  0
LINE
  5
326
330
1F
100
AcDbEntity
  8
1
  6
Continuous
 62
     7
370
     9
100
AcDbLine
 10
374.4767989730087
 20
311.3871980674859
 30
0.0
 11
354.6345445910637
 21
312.0072995046521
 31
0.0
  0
LINE
  5
327
330
1F
100
AcDbEntity
  8
1
  6
Continuous
 62
     7
370
     9
100
AcDbLine
 10
374.4767989730087
 20
264.255103643245
 30
0.0
 11
374.4767989730087
 21
311.3871980674859
 31
0.0
  0
LINE
  5
328
330
1F
100
AcDbEntity
  8
1
  6
Continuous
 62
     7
370
     9
100
AcDbLine
 10
338.2511477791945
 20
263.7196408604591
 30
0.0
 11
338.2511477791945
 21
312.0072995046521
 31
0.0
  0
LINE
  5
329
330
1F
100
AcDbEntity
  8
1
  6
Continuous
 62
     7
370
     9
100
AcDbLine
 10
335.5428461851291
 20
265.1986408604591
 30
0.0
 11
338.2511477791945
 21
263.6350022060788
 31
0.0
  0
LINE
  5
32A
330
1F
100
AcDbEntity
  8
1
  6
Continuous
 62
     7
370
     9
100
AcDbLine
 10
338.2511477791945
 20
263.6350022060788
 30
0.0
 11
338.7755402992531
 21
262.7267277182279
 31
0.0
  0
LINE
  5
32B
330
1F
100
AcDbEntity
  8
1
  6
Continuous
 62
     7
370
     9
100
AcDbLine
 10
316.8821812586455
 20
265.781815781849
 30
0.0
 11
335.5428461851291
 21
265.1986408604591
 31
0.0
  0
LINE
  5
32C
330
1F
100
AcDbEntity
  8
1
  6
Continuous
 62
     7
370
     9
100
AcDbLine
 10
318.4088933972495
 20
264.255103643245
 30
0.0
 11
338.2511477791945
 21
263.6350022060788
 31
0.0
  0
LINE
  5
32D
330
1F
100
AcDbEntity
  8
1
  6
Continuous
 62
     7
370
     9
100
AcDbLine
 10
340.4428461851291
 20
314.8211508553654
 30
0.0
 11
340.4428461851291
 21
260.8211508553652
 31
0.0
  0
LINE
  5
32E
330
1F
100
AcDbEntity
  8
1
  6
Continuous
 62
     7
370
     9
100
AcDbLine
 10
351.6389986078357
 20
257.8211508553654
 30
0.0
 11
341.2466937624225
 21
257.8211508553654
 31
0.0
  0
LINE
  5
32F
330
1F
100
AcDbEntity
  8
1
  6
Continuous
 62
     7
370
     9
100
AcDbLine
 10
340.4428461851291
 20
260.8211508553654
 30
0.0
 11
341.2466937624225
 21
257.8211508553654
 31
0.0
  0
LINE
  5
330
330
1F
100
AcDbEntity
  8
1
  6
Continuous
 62
     7
370
     9
100
AcDbLine
 10
352.4428461851291
 20
260.8211508553654
 30
0.0
 11
351.6389986078357
 21
257.8211508553654
 31
0.0
  0
LINE
  5
331
330
1F
100
AcDbEntity
  8
1
  6
Continuous
 62
     7
370
     9
100
AcDbLine
 10
351.6389986078357
 20
270.9768133684966
 30
0.0
 11
341.2466937624225
 21
270.9768133684966
 31
0.0
  0
LINE
  5
332
330
1F
100
AcDbEntity
  8
1
  6
Continuous
 62
     7
370
     9
100
AcDbLine
 10
351.6389986078357
 20
274.7444540247434
 30
0.0
 11
341.2466937624225
 21
274.7444540247434
 31
0.0
  0
LINE
  5
333
330
1F
100
AcDbEntity
  8
1
  6
Continuous
 62
     7
370
     9
100
AcDbLine
 10
341.2466937624225
 20
274.7444540247434
 30
0.0
 11
341.2466937624225
 21
270.9768133684966
 31
0.0
  0
LINE
  5
334
330
1F
100
AcDbEntity
  8
1
  6
Continuous
 62
     7
370
     9
100
AcDbLine
 10
351.6389986078357
 20
274.7444540247434
 30
0.0
 11
351.6389986078357
 21
270.9768133684966
 31
0.0
  0
LINE
  5
335
330
1F
100
AcDbEntity
  8
1
  6
Continuous
 62
     7
370
     9
100
AcDbLine
 10
340.4428461851291
 20
314.8211508553654
 30
0.0
 11
341.2466937624226
 21
317.8211508553654
 31
0.0
  0
LINE
  5
336
330
1F
100
AcDbEntity
  8
1
  6
Continuous
 62
     7
370
     9
100
AcDbLine
 10
351.6389986078358
 20
317.8211508553654
 30
0.0
 11
341.2466937624226
 21
317.8211508553654
 31
0.0
  0
LINE
  5
337
330
1F
100
AcDbEntity
  8
1
  6
Continuous
 62
     7
370
     9
100
AcDbLine
 10
318.4088933972496
 20
311.3871980674859
 30
0.0
 11
338.2511477791945
 21
312.0072995046521
 31
0.0
  0
LINE
  5
338
330
1F
100
AcDbEntity
  8
1
  6
Continuous
 62
     7
370
     9
100
AcDbLine
 10
351.6389986078357
 20
304.6654883422343
 30
0.0
 11
341.2466937624225
 21
304.6654883422343
 31
0.0
  0
LINE
  5
339
330
1F
100
AcDbEntity
  8
1
  6
Continuous
 62
     7
370
     9
100
AcDbLine
 10
338.2603350956223
 20
312.0232124034904
 30
0.0
 11
338.7755402992532
 21
312.9155739925029
 31
0.0
  0
LINE
  5
33A
330
1F
100
AcDbEntity
  8
1
  6
Continuous
 62
     7
370
     9
100
AcDbLine
 10
316.8821812586455
 20
309.8604859288819
 30
0.0
 11
335.5428461851291
 21
310.4436608502718
 31
0.0
  0
LINE
  5
33B
330
1F
100
AcDbEntity
  8
1
  6
Continuous
 62
     7
370
     9
100
AcDbLine
 10
351.6389986078357
 20
300.8978476859875
 30
0.0
 11
341.2466937624225
 21
300.8978476859875
 31
0.0
  0
LINE
  5
33C
330
1F
100
AcDbEntity
  8
1
  6
Continuous
 62
     7
370
     9
100
AcDbLine
 10
338.7755402992531
 20
262.7267277182279
 30
0.0
 11
339.9595036002455
 21
262.6872622748615
 31
0.0
  0
ARC
  5
33D
330
1F
100
AcDbEntity
  8
1
  6
Continuous
 62
     7
370
     9
100
AcDbCircle
 10
339.9428461851291
 20
313.4547618893589
 30
0.0
 40
0.5
100
AcDbArc
 50
271.9091524330001
 51
0.0
  0
ARC
  5
33E
330
1F
100
AcDbEntity
  8
1
  6
Continuous
 62
     7
370
     9
100
AcDbCircle
 10
352.9428461851291
 20
313.4547618893589
 30
0.0
 40
0.5
100
AcDbArc
 50
179.9999999999998
 51
268.0908475670122
  0
ARC
  5
33F
330
1F
100
AcDbEntity
  8
1
  6
Continuous
 62
     7
370
     9
100
AcDbCircle
 10
367.757747795727
 20
311.2433195987999
 30
0.0
 40
27.31490161059783
100
AcDbArc
 50
166.0653673393529
 51
193.9346326606475
  0
ARC
  5
340
330
1F
100
AcDbEntity
  8
1
  6
Continuous
 62
     7
370
     9
100
AcDbCircle
 10
352.9428461851291
 20
262.187539821372
 30
0.0
 40
0.5
100
AcDbArc
 50
91.9091524330005
 51
179.9999999999998
  0
ARC
  5
341
330
1F
100
AcDbEntity
  8
1
  6
Continuous
 62
     7
370
     9
100
AcDbCircle
 10
339.9428461851291
 20
262.187539821372
 30
0.0
 40
0.5
100
AcDbArc
 50
0.0
 51
88.0908475669995
  0
ARC
  5
342
330
1F
100
AcDbEntity
  8
1
  6
Continuous
 62
     7
370
     9
100
AcDbCircle
 10
447.2082179894889
 20
287.8211508553654
 30
0.0
 40
106.7653718043598
100
AcDbArc
 50
172.9647078032575
 51
180.0000000000004
  0
ARC
  5
343
330
1F
100
AcDbEntity
  8
1
  6
Continuous
 62
     7
370
     9
100
AcDbCircle
 10
325.1279445745312
 20
311.2433195987999
 30
0.0
 40
27.31490161059783
100
AcDbArc
 50
346.0653673393531
 51
13.93463266064707
  0
ARC
  5
344
330
1F
100
AcDbEntity
  8
1
  6
Continuous
 62
     7
370
     9
100
AcDbCircle
 10
447.2082179894889
 20
287.8211508553654
 30
0.0
 40
106.7653718043598
100
AcDbArc
 50
179.9999999999999
 51
187.0352921967429
  0
ARC
  5
345
330
1F
100
AcDbEntity
  8
1
  6
Continuous
 62
     7
370
     9
100
AcDbCircle
 10
367.757747795727
 20
264.398982111931
 30
0.0
 40
27.31490161059783
100
AcDbArc
 50
166.0653673393527
 51
193.9346326606475
  0
ARC
  5
346
330
1F
100
AcDbEntity
  8
1
  6
Continuous
 62
     7
370
     9
100
AcDbCircle
 10
245.6774743807694
 20
287.8211508553654
 30
0.0
 40
106.7653718043598
100
AcDbArc
 50
352.9647078032577
 51
0.0
  0
ARC
  5
347
330
1F
100
AcDbEntity
  8
1
  6
Continuous
 62
     7
370
     9
100
AcDbCircle
 10
325.1279445745312
 20
264.398982111931
 30
0.0
 40
27.31490161059783
100
AcDbArc
 50
346.0653673393531
 51
13.93463266064707
  0
ARC
  5
348
330
1F
100
AcDbEntity
  8
1
  6
Continuous
 62
     7
370
     9
100
AcDbCircle
 10
245.6774743807694
 20
287.8211508553654
 30
0.0
 40
106.7653718043598
100
AcDbArc
 50
0.0
 51
7.035292196742595
  0
LINE
  5
349
330
1F
100
AcDbEntity
  8
1
  6
Continuous
 62
     7
370
     9
100
AcDbLine
 10
450.4428461851291
 20
300.8978476859875
 30
0.0
 11
450.4428461851291
 21
274.7444540247434
 31
0.0
  0
LINE
  5
34A
330
1F
100
AcDbEntity
  8
1
  6
Continuous
 62
     7
370
     9
100
AcDbLine
 10
425.618094532223
 20
257.9001165378746
 30
0.0
 11
448.2675978380352
 21
270.9768133684966
 31
0.0
  0
LINE
  5
34B
330
1F
100
AcDbEntity
  8
1
  6
Continuous
 62
     7
370
     9
100
AcDbLine
 10
448.2675978380352
 20
304.6654883422343
 30
0.0
 11
425.618094532223
 21
317.7421851728563
 31
0.0
  0
LINE
  5
34C
330
1F
100
AcDbEntity
  8
1
  6
Continuous
 62
     7
370
     9
100
AcDbLine
 10
396.4428461851291
 20
300.8978476859875
 30
0.0
 11
396.4428461851291
 21
274.7444540247434
 31
0.0
  0
LINE
  5
34D
330
1F
100
AcDbEntity
  8
1
  6
Continuous
 62
     7
370
     9
100
AcDbLine
 10
421.2675978380352
 20
257.9001165378746
 30
0.0
 11
398.618094532223
 21
270.9768133684966
 31
0.0
  0
LINE
  5
34E
330
1F
100
AcDbEntity
  8
1
  6
Continuous
 62
     7
370
     9
100
AcDbLine
 10
398.618094532223
 20
304.6654883422343
 30
0.0
 11
421.2675978380352
 21
317.7421851728563
 31
0.0
  0
ARC
  5
34F
330
1F
100
AcDbEntity
  8
1
  6
Continuous
 62
     7
370
     9
100
AcDbCircle
 10
423.4428461851291
 20
287.8211508553654
 30
0.0
 40
30.0
100
AcDbArc
 50
25.84193276316716
 51
34.15806723683296
  0
CIRCLE
  5
350
330
1F
100
AcDbEntity
  8
1
  6
Continuous
 62
     7
370
     9
100
AcDbCircle
 10
423.4428461851291
 20
287.8211508553654
 30
0.0
 40
21.60000000000002
  0
ARC
  5
351
330
1F
100
AcDbEntity
  8
1
  6
Continuous
 62
     7
370
     9
100
AcDbCircle
 10
423.4428461851291
 20
287.8211508553654
 30
0.0
 40
30.0
100
AcDbArc
 50
325.8419327631674
 51
334.1580672368333
  0
ARC
  5
352
330
1F
100
AcDbEntity
  8
1
  6
Continuous
 62
     7
370
     9
100
AcDbCircle
 10
423.4428461851291
 20
287.8211508553654
 30
0.0
 40
30.0
100
AcDbArc
 50
85.84193276316712
 51
89.99999999999991
  0
CIRCLE
  5
353
330
1F
100
AcDbEntity
  8
1
  6
Continuous
 62
     7
370
     9
100
AcDbCircle
 10
423.4428461851291
 20
287.8211508553654
 30
0.0
 40
20.0
  0
CIRCLE
  5
354
330
1F
100
AcDbEntity
  8
1
  6
Continuous
 62
     7
370
     9
100
AcDbCircle
 10
423.4428461851291
 20
287.8211508553654
 30
0.0
 40
25.10000000000002
  0
CIRCLE
  5
355
330
1F
100
AcDbEntity
  8
1
  6
Continuous
 62
     7
370
     9
100
AcDbCircle
 10
423.4428461851291
 20
287.8211508553654
 30
0.0
 40
23.9015
  0
CIRCLE
  5
356
330
1F
100
AcDbEntity
  8
1
  6
Continuous
 62
     7
370
     9
100
AcDbCircle
 10
423.4428461851291
 20
287.8211508553654
 30
0.0
 40
19.5
  0
CIRCLE
  5
357
330
1F
100
AcDbEntity
  8
1
  6
Continuous
 62
     7
370
     9
100
AcDbCircle
 10
423.4428461851291
 20
287.8211508553654
 30
0.0
 40
22.42250000000001
  0
ARC
  5
358
330
1F
100
AcDbEntity
  8
1
  6
Continuous
 62
     7
370
     9
100
AcDbCircle
 10
423.4428461851291
 20
287.8211508553654
 30
0.0
 40
30.0
100
AcDbArc
 50
145.8419327631671
 51
154.1580672368329
  0
ARC
  5
359
330
1F
100
AcDbEntity
  8
1
  6
Continuous
 62
     7
370
     9
100
AcDbCircle
 10
423.4428461851291
 20
287.8211508553654
 30
0.0
 40
30.0
100
AcDbArc
 50
265.8419327631676
 51
274.1580672368335
  0
ARC
  5
35A
330
1F
100
AcDbEntity
  8
1
  6
Continuous
 62
     7
370
     9
100
AcDbCircle
 10
423.4428461851291
 20
287.8211508553654
 30
0.0
 40
30.0
100
AcDbArc
 50
205.8419327631676
 51
214.1580672368332
  0
ARC
  5
35B
330
1F
100
AcDbEntity
  8
1
  6
Continuous
 62
     7
370
     9
100
AcDbCircle
 10
423.4428461851291
 20
287.8211508553654
 30
0.0
 40
30.0
100
AcDbArc
 50
89.99999999999991
 51
94.15806723683288
  0
ARC
  5
35C
330
1F
100
AcDbEntity
  8
1
  6
Continuous
 62
     7
370
     9
100
AcDbCircle
 10
423.4428461851291
 20
287.8211508553654
 30
0.0
 40
27.0
100
AcDbArc
 50
180.0000000000004
 51
0.0
  0
ARC
  5
35D
330
1F
100
AcDbEntity
  8
1
  6
Continuous
 62
     7
370
     9
100
AcDbCircle
 10
423.4428461851291
 20
287.8211508553654
 30
0.0
 40
27.0
100
AcDbArc
 50
0.0
 51
179.9999999999998
  0
LINE
  5
35E
330
1F
100
AcDbEntity
  8
7
  6
DASHDOT
 62
     4
370
     9
100
AcDbLine
 10
380.4428461851291
 20
287.8211508553654
 30
0.0
 11
312.4428461851291
 21
287.8211508553654
 31
0.0
  0
LINE
  5
35F
330
1F
100
AcDbEntity
  8
7
  6
PHANTOM
 62
     4
370
     9
100
AcDbLine
 10
329.1428461851291
 20
311.7226508553654
 30
0.0
 11
329.1428461851291
 21
263.9196508553654
 31
0.0
  0
LINE
  5
360
330
1F
100
AcDbEntity
  8
7
  6
PHANTOM
 62
     4
370
     9
100
AcDbLine
 10
363.7428461851291
 20
311.7226508553654
 30
0.0
 11
363.7428461851291
 21
263.9196508553654
 31
0.0
  0
LINE
  5
361
330
1F
100
AcDbEntity
  8
7
  6
DASHDOT
 62
     4
370
     9
100
AcDbLine
 10
392.4428461851291
 20
287.8211508553654
 30
0.0
 11
454.4428461851291
 21
287.8211508553654
 31
0.0
  0
LINE
  5
362
330
1F
100
AcDbEntity
  8
7
  6
DASHDOT
 62
     4
370
     9
100
AcDbLine
 10
423.4428461851291
 20
321.8211508553654
 30
0.0
 11
423.4428461851291
 21
253.8211508553654
 31
0.0
  0
LINE
  5
363
330
1F
100
AcDbEntity
  8
1
  6
Continuous
 62
     7
370
     9
100
AcDbLine
 10
628.0517003628823
 20
262.7797641425846
 30
0.0
 11
628.0517003628823
 21
322.8625375681463
 31
0.0
  0
LINE
  5
364
330
1F
100
AcDbEntity
  8
1
  6
Continuous
 62
     7
370
     9
100
AcDbLine
 10
625.9317003628823
 20
322.928790878959
 30
0.0
 11
625.4630058104991
 21
323.7405936569176
 31
0.0
  0
LINE
  5
365
330
1F
100
AcDbEntity
  8
1
  6
Continuous
 62
     7
370
     9
100
AcDbLine
 10
585.8773529008085
 20
320.6668033932916
 30
0.0
 11
608.8117003628823
 21
321.3835375681463
 31
0.0
  0
LINE
  5
366
330
1F
100
AcDbEntity
  8
1
  6
Continuous
 62
     7
370
     9
100
AcDbLine
 10
608.8117003628823
 20
321.3835375681463
 30
0.0
 11
610.9317003628823
 21
322.928790878959
 31
0.0
  0
LINE
  5
367
330
1F
100
AcDbEntity
  8
1
  6
Continuous
 62
     7
370
     9
100
AcDbLine
 10
624.4831816832746
 20
324.1290199520211
 30
0.0
 11
623.4938781893734
 21
327.8211508553654
 31
0.0
  0
LINE
  5
368
330
1F
100
AcDbEntity
  8
1
  6
Continuous
 62
     7
370
     9
100
AcDbLine
 10
611.9112826398449
 20
323.7557310709791
 30
0.0
 11
611.4003949152656
 21
323.7405936569176
 31
0.0
  0
LINE
  5
369
330
1F
100
AcDbEntity
  8
1
  6
Continuous
 62
     7
370
     9
100
AcDbLine
 10
650.9860478249561
 20
320.6668033932916
 30
0.0
 11
628.0517003628823
 21
321.3835375681463
 31
0.0
  0
LINE
  5
36A
330
1F
100
AcDbEntity
  8
1
  6
Continuous
 62
     7
370
     9
100
AcDbLine
 10
612.3802190424901
 20
324.1290199520211
 30
0.0
 11
613.3695225363912
 21
327.8211508553654
 31
0.0
  0
LINE
  5
36B
330
1F
100
AcDbEntity
  8
1
  6
Continuous
 62
     7
370
     9
100
AcDbLine
 10
651.4317003628823
 20
320.2211508553654
 30
0.0
 11
651.4317003628823
 21
265.4211508553655
 31
0.0
  0
LINE
  5
36C
330
1F
100
AcDbEntity
  8
1
  6
Continuous
 62
     7
370
     9
100
AcDbLine
 10
624.4317003628823
 20
261.3211508553653
 30
0.0
 11
624.4317003628823
 21
324.3211508553655
 31
0.0
  0
LINE
  5
36D
330
1F
100
AcDbEntity
  8
1
  6
Continuous
 62
     7
370
     9
100
AcDbLine
 10
612.3802190424901
 20
261.5132817587098
 30
0.0
 11
613.3695225363912
 21
257.8211508553654
 31
0.0
  0
LINE
  5
36E
330
1F
100
AcDbEntity
  8
1
  6
Continuous
 62
     7
370
     9
100
AcDbLine
 10
624.4839634887951
 20
261.5161994966339
 30
0.0
 11
623.4938781893735
 21
257.8211508553654
 31
0.0
  0
LINE
  5
36F
330
1F
100
AcDbEntity
  8
1
  6
Continuous
 62
     7
370
     9
100
AcDbLine
 10
612.4317003628823
 20
261.3211508553654
 30
0.0
 11
612.4317003628823
 21
324.3211508553655
 31
0.0
  0
LINE
  5
370
330
1F
100
AcDbEntity
  8
1
  6
Continuous
 62
     7
370
     9
100
AcDbLine
 10
651.4317003628823
 20
320.2211508553654
 30
0.0
 11
649.4593356863521
 21
322.1935155318956
 31
0.0
  0
LINE
  5
371
330
1F
100
AcDbEntity
  8
1
  6
Continuous
 62
     7
370
     9
100
AcDbLine
 10
649.4593356863521
 20
322.1935155318956
 30
0.0
 11
625.9317003628823
 21
322.928790878959
 31
0.0
  0
LINE
  5
372
330
1F
100
AcDbEntity
  8
1
  6
Continuous
 62
     7
370
     9
100
AcDbLine
 10
651.4317003628823
 20
265.4211508553655
 30
0.0
 11
649.459335686352
 21
263.4487861788352
 31
0.0
  0
LINE
  5
373
330
1F
100
AcDbEntity
  8
1
  6
Continuous
 62
     7
370
     9
100
AcDbLine
 10
585.4317003628823
 20
265.4211508553655
 30
0.0
 11
587.4040650394127
 21
263.4487861788352
 31
0.0
  0
LINE
  5
374
330
1F
100
AcDbEntity
  8
1
  6
Continuous
 62
     7
370
     9
100
AcDbLine
 10
625.9317003628823
 20
262.7135108317718
 30
0.0
 11
625.4630058104991
 21
261.9017080538133
 31
0.0
  0
LINE
  5
375
330
1F
100
AcDbEntity
  8
1
  6
Continuous
 62
     7
370
     9
100
AcDbLine
 10
624.9521180859198
 20
261.8865706397517
 30
0.0
 11
625.4630058104991
 21
261.9017080538133
 31
0.0
  0
LINE
  5
376
330
1F
100
AcDbEntity
  8
1
  6
Continuous
 62
     7
370
     9
100
AcDbLine
 10
624.9521180859198
 20
323.7557310709792
 30
0.0
 11
625.4630058104991
 21
323.7405936569176
 31
0.0
  0
LINE
  5
377
330
1F
100
AcDbEntity
  8
1
  6
Continuous
 62
     7
370
     9
100
AcDbLine
 10
623.4938781893734
 20
327.8211508553654
 30
0.0
 11
613.3695225363913
 21
327.8211508553654
 31
0.0
  0
LINE
  5
378
330
1F
100
AcDbEntity
  8
1
  6
Continuous
 62
     7
370
     9
100
AcDbLine
 10
613.3695225363913
 20
257.8211508553654
 30
0.0
 11
623.4938781893735
 21
257.8211508553654
 31
0.0
  0
LINE
  5
379
330
1F
100
AcDbEntity
  8
1
  6
Continuous
 62
     7
370
     9
100
AcDbLine
 10
623.4938781893734
 20
273.1694237873518
 30
0.0
 11
613.3695225363913
 21
273.1694237873518
 31
0.0
  0
LINE
  5
37A
330
1F
100
AcDbEntity
  8
1
  6
Continuous
 62
     7
370
     9
100
AcDbLine
 10
623.4938781893734
 20
277.5650045529731
 30
0.0
 11
613.3695225363913
 21
277.5650045529731
 31
0.0
  0
LINE
  5
37B
330
1F
100
AcDbEntity
  8
1
  6
Continuous
 62
     7
370
     9
100
AcDbLine
 10
613.3695225363913
 20
277.5650045529731
 30
0.0
 11
613.3695225363913
 21
273.1694237873518
 31
0.0
  0
LINE
  5
37C
330
1F
100
AcDbEntity
  8
1
  6
Continuous
 62
     7
370
     9
100
AcDbLine
 10
623.4938781893734
 20
277.5650045529731
 30
0.0
 11
623.4938781893734
 21
273.1694237873518
 31
0.0
  0
LINE
  5
37D
330
1F
100
AcDbEntity
  8
1
  6
Continuous
 62
     7
370
     9
100
AcDbLine
 10
585.4317003628823
 20
320.2211508553654
 30
0.0
 11
585.4317003628823
 21
265.4211508553655
 31
0.0
  0
LINE
  5
37E
330
1F
100
AcDbEntity
  8
1
  6
Continuous
 62
     7
370
     9
100
AcDbLine
 10
587.4040650394126
 20
322.1935155318956
 30
0.0
 11
610.9317003628823
 21
322.928790878959
 31
0.0
  0
LINE
  5
37F
330
1F
100
AcDbEntity
  8
1
  6
Continuous
 62
     7
370
     9
100
AcDbLine
 10
623.4938781893734
 20
308.0772971577578
 30
0.0
 11
613.3695225363913
 21
308.0772971577578
 31
0.0
  0
LINE
  5
380
330
1F
100
AcDbEntity
  8
1
  6
Continuous
 62
     7
370
     9
100
AcDbLine
 10
650.9860478249561
 20
264.9754983174392
 30
0.0
 11
628.0517003628823
 21
264.2587641425845
 31
0.0
  0
LINE
  5
381
330
1F
100
AcDbEntity
  8
1
  6
Continuous
 62
     7
370
     9
100
AcDbLine
 10
649.4593356863521
 20
263.4487861788352
 30
0.0
 11
649.4593356863521
 21
322.1935155318956
 31
0.0
  0
LINE
  5
382
330
1F
100
AcDbEntity
  8
1
  6
Continuous
 62
     7
370
     9
100
AcDbLine
 10
628.0517003628822
 20
264.2587641425845
 30
0.0
 11
625.9317003628823
 21
262.7135108317718
 31
0.0
  0
LINE
  5
383
330
1F
100
AcDbEntity
  8
1
  6
Continuous
 62
     7
370
     9
100
AcDbLine
 10
625.4630058104991
 20
261.9017080538133
 30
0.0
 11
625.4630058104991
 21
323.7405936569176
 31
0.0
  0
LINE
  5
384
330
1F
100
AcDbEntity
  8
1
  6
Continuous
 62
     7
370
     9
100
AcDbLine
 10
625.9317003628823
 20
262.7135108317718
 30
0.0
 11
625.9317003628823
 21
322.928790878959
 31
0.0
  0
LINE
  5
385
330
1F
100
AcDbEntity
  8
1
  6
Continuous
 62
     7
370
     9
100
AcDbLine
 10
610.9317003628823
 20
262.7135108317718
 30
0.0
 11
610.9317003628823
 21
322.928790878959
 31
0.0
  0
LINE
  5
386
330
1F
100
AcDbEntity
  8
1
  6
Continuous
 62
     7
370
     9
100
AcDbLine
 10
611.4003949152656
 20
261.9017080538133
 30
0.0
 11
611.4003949152656
 21
323.7405936569176
 31
0.0
  0
LINE
  5
387
330
1F
100
AcDbEntity
  8
1
  6
Continuous
 62
     7
370
     9
100
AcDbLine
 10
623.4938781893734
 20
308.0772971577578
 30
0.0
 11
623.4938781893734
 21
312.472877923379
 31
0.0
  0
LINE
  5
388
330
1F
100
AcDbEntity
  8
1
  6
Continuous
 62
     7
370
     9
100
AcDbLine
 10
608.8117003628824
 20
264.2587641425845
 30
0.0
 11
610.9317003628823
 21
262.7135108317718
 31
0.0
  0
LINE
  5
389
330
1F
100
AcDbEntity
  8
1
  6
Continuous
 62
     7
370
     9
100
AcDbLine
 10
587.4040650394126
 20
263.4487861788352
 30
0.0
 11
587.4040650394126
 21
322.1935155318956
 31
0.0
  0
LINE
  5
38A
330
1F
100
AcDbEntity
  8
1
  6
Continuous
 62
     7
370
     9
100
AcDbLine
 10
610.9317003628823
 20
262.7135108317718
 30
0.0
 11
611.4003949152656
 21
261.9017080538133
 31
0.0
  0
LINE
  5
38B
330
1F
100
AcDbEntity
  8
1
  6
Continuous
 62
     7
370
     9
100
AcDbLine
 10
585.8773529008085
 20
264.9754983174392
 30
0.0
 11
608.8117003628823
 21
264.2587641425845
 31
0.0
  0
LINE
  5
38C
330
1F
100
AcDbEntity
  8
1
  6
Continuous
 62
     7
370
     9
100
AcDbLine
 10
587.4040650394126
 20
263.4487861788352
 30
0.0
 11
610.9317003628823
 21
262.7135108317718
 31
0.0
  0
LINE
  5
38D
330
1F
100
AcDbEntity
  8
1
  6
Continuous
 62
     7
370
     9
100
AcDbLine
 10
610.9317003628823
 20
322.928790878959
 30
0.0
 11
611.4003949152656
 21
323.7405936569176
 31
0.0
  0
LINE
  5
38E
330
1F
100
AcDbEntity
  8
1
  6
Continuous
 62
     7
370
     9
100
AcDbLine
 10
608.8117003628823
 20
262.7797641425846
 30
0.0
 11
608.8117003628823
 21
322.8625375681463
 31
0.0
  0
LINE
  5
38F
330
1F
100
AcDbEntity
  8
1
  6
Continuous
 62
     7
370
     9
100
AcDbLine
 10
623.4938781893734
 20
312.472877923379
 30
0.0
 11
613.3695225363913
 21
312.472877923379
 31
0.0
  0
LINE
  5
390
330
1F
100
AcDbEntity
  8
1
  6
Continuous
 62
     7
370
     9
100
AcDbLine
 10
613.3695225363913
 20
308.0772971577578
 30
0.0
 11
613.3695225363913
 21
312.472877923379
 31
0.0
  0
LINE
  5
391
330
1F
100
AcDbEntity
  8
1
  6
Continuous
 62
     7
370
     9
100
AcDbLine
 10
611.9112826398449
 20
261.8865706397517
 30
0.0
 11
611.4003949152656
 21
261.9017080538133
 31
0.0
  0
LINE
  5
392
330
1F
100
AcDbEntity
  8
1
  6
Continuous
 62
     7
370
     9
100
AcDbLine
 10
585.4317003628823
 20
320.2211508553654
 30
0.0
 11
587.4040650394124
 21
322.1935155318956
 31
0.0
  0
LINE
  5
393
330
1F
100
AcDbEntity
  8
1
  6
Continuous
 62
     7
370
     9
100
AcDbLine
 10
649.4593356863521
 20
263.4487861788352
 30
0.0
 11
625.9317003628823
 21
262.7135108317718
 31
0.0
  0
LINE
  5
394
330
1F
100
AcDbEntity
  8
1
  6
Continuous
 62
     7
370
     9
100
AcDbLine
 10
628.0517003628823
 20
321.3835375681463
 30
0.0
 11
625.9317003628823
 21
322.928790878959
 31
0.0
  0
ARC
  5
395
330
1F
100
AcDbEntity
  8
1
  6
Continuous
 62
     7
370
     9
100
AcDbCircle
 10
611.896474323825
 20
261.3867899740826
 30
0.0
 40
0.5
100
AcDbArc
 50
15.00000000000074
 51
88.30284381039499
  0
ARC
  5
396
330
1F
100
AcDbEntity
  8
1
  6
Continuous
 62
     7
370
     9
100
AcDbCircle
 10
736.9913008013004
 20
292.8211508553654
 30
0.0
 40
124.5596004384181
100
AcDbArc
 50
179.9999999999999
 51
187.0352921967429
  0
ARC
  5
397
330
1F
100
AcDbEntity
  8
1
  6
Continuous
 62
     7
370
     9
100
AcDbCircle
 10
644.2990855752462
 20
265.4952873213586
 30
0.0
 40
31.86738521236378
100
AcDbArc
 50
166.0653673393527
 51
193.9346326606475
  0
ARC
  5
398
330
1F
100
AcDbEntity
  8
1
  6
Continuous
 62
     7
370
     9
100
AcDbCircle
 10
624.9669264019396
 20
324.2555117366483
 30
0.0
 40
0.5
100
AcDbArc
 50
195.0000000000067
 51
268.3028438103948
  0
ARC
  5
399
330
1F
100
AcDbEntity
  8
1
  6
Continuous
 62
     7
370
     9
100
AcDbCircle
 10
736.9913008013004
 20
292.8211508553654
 30
0.0
 40
124.5596004384181
100
AcDbArc
 50
172.9647078032574
 51
180.0000000000004
  0
ARC
  5
39A
330
1F
100
AcDbEntity
  8
1
  6
Continuous
 62
     7
370
     9
100
AcDbCircle
 10
499.8720999244641
 20
292.8211508553654
 30
0.0
 40
124.5596004384181
100
AcDbArc
 50
352.9647078032577
 51
0.0000000000006798
  0
ARC
  5
39B
330
1F
100
AcDbEntity
  8
1
  6
Continuous
 62
     7
370
     9
100
AcDbCircle
 10
592.5643151505185
 20
265.4952873213586
 30
0.0
 40
31.86738521236377
100
AcDbArc
 50
346.065367339353
 51
13.93463266064725
  0
ARC
  5
39C
330
1F
100
AcDbEntity
  8
1
  6
Continuous
 62
     7
370
     9
100
AcDbCircle
 10
644.2990855752462
 20
320.1470143893722
 30
0.0
 40
31.86738521236378
100
AcDbArc
 50
166.0653673393527
 51
193.9346326606476
  0
ARC
  5
39D
330
1F
100
AcDbEntity
  8
1
  6
Continuous
 62
     7
370
     9
100
AcDbCircle
 10
499.8720999244641
 20
292.8211508553654
 30
0.0
 40
124.5596004384181
100
AcDbArc
 50
0.0000000000000523
 51
7.035292196742693
  0
ARC
  5
39E
330
1F
100
AcDbEntity
  8
1
  6
Continuous
 62
     7
370
     9
100
AcDbCircle
 10
592.5643151505185
 20
320.1470143893722
 30
0.0
 40
31.86738521236377
100
AcDbArc
 50
346.0653673393531
 51
13.93463266064735
  0
ARC
  5
39F
330
1F
100
AcDbEntity
  8
1
  6
Continuous
 62
     7
370
     9
100
AcDbCircle
 10
611.896474323825
 20
324.2555117366483
 30
0.0
 40
0.5
100
AcDbArc
 50
271.6971561896045
 51
345.0000000000052
  0
ARC
  5
3A0
330
1F
100
AcDbEntity
  8
1
  6
Continuous
 62
     7
370
     9
100
AcDbCircle
 10
624.9669264019396
 20
261.3867899740826
 30
0.0
 40
0.5
100
AcDbArc
 50
91.69715618960501
 51
164.9999999999993
  0
LINE
  5
3A1
330
1F
100
AcDbEntity
  8
1
  6
Continuous
 62
     7
370
     9
100
AcDbLine
 10
715.4694901011585
 20
257.9132774849595
 30
0.0
 11
741.8939106246062
 21
273.1694237873519
 31
0.0
  0
LINE
  5
3A2
330
1F
100
AcDbEntity
  8
1
  6
Continuous
 62
     7
370
     9
100
AcDbLine
 10
741.8939106246062
 20
312.4728779233791
 30
0.0
 11
715.4694901011585
 21
327.7290242257715
 31
0.0
  0
LINE
  5
3A3
330
1F
100
AcDbEntity
  8
1
  6
Continuous
 62
     7
370
     9
100
AcDbLine
 10
744.4317003628823
 20
308.0772971577578
 30
0.0
 11
744.4317003628823
 21
277.5650045529731
 31
0.0
  0
LINE
  5
3A4
330
1F
100
AcDbEntity
  8
1
  6
Continuous
 62
     7
370
     9
100
AcDbLine
 10
710.3939106246062
 20
257.9132774849595
 30
0.0
 11
683.9694901011585
 21
273.1694237873518
 31
0.0
  0
LINE
  5
3A5
330
1F
100
AcDbEntity
  8
1
  6
Continuous
 62
     7
370
     9
100
AcDbLine
 10
683.9694901011585
 20
312.472877923379
 30
0.0
 11
710.3939106246062
 21
327.7290242257715
 31
0.0
  0
LINE
  5
3A6
330
1F
100
AcDbEntity
  8
1
  6
Continuous
 62
     7
370
     9
100
AcDbLine
 10
681.4317003628823
 20
308.0772971577578
 30
0.0
 11
681.4317003628823
 21
277.5650045529731
 31
0.0
  0
CIRCLE
  5
3A7
330
1F
100
AcDbEntity
  8
1
  6
Continuous
 62
     7
370
     9
100
AcDbCircle
 10
712.9317003628823
 20
292.8211508553654
 30
0.0
 40
25.5
  0
ARC
  5
3A8
330
1F
100
AcDbEntity
  8
1
  6
Continuous
 62
     7
370
     9
100
AcDbCircle
 10
712.9317003628823
 20
292.8211508553654
 30
0.0
 40
35.0
100
AcDbArc
 50
25.84193276316716
 51
34.15806723683287
  0
ARC
  5
3A9
330
1F
100
AcDbEntity
  8
1
  6
Continuous
 62
     7
370
     9
100
AcDbCircle
 10
712.9317003628823
 20
292.8211508553654
 30
0.0
 40
35.0
100
AcDbArc
 50
270.0
 51
274.1580672368332
  0
ARC
  5
3AA
330
1F
100
AcDbEntity
  8
1
  6
Continuous
 62
     7
370
     9
100
AcDbCircle
 10
712.9317003628823
 20
292.8211508553654
 30
0.0
 40
35.0
100
AcDbArc
 50
85.84193276316718
 51
89.99999999999991
  0
ARC
  5
3AB
330
1F
100
AcDbEntity
  8
1
  6
Continuous
 62
     7
370
     9
100
AcDbCircle
 10
712.9317003628823
 20
292.8211508553654
 30
0.0
 40
35.0
100
AcDbArc
 50
325.8419327631676
 51
334.1580672368332
  0
ARC
  5
3AC
330
1F
100
AcDbEntity
  8
1
  6
Continuous
 62
     7
370
     9
100
AcDbCircle
 10
712.9317003628823
 20
292.8211508553654
 30
0.0
 40
35.0
100
AcDbArc
 50
145.8419327631673
 51
154.1580672368329
  0
ARC
  5
3AD
330
1F
100
AcDbEntity
  8
1
  6
Continuous
 62
     7
370
     9
100
AcDbCircle
 10
712.9317003628823
 20
292.8211508553654
 30
0.0
 40
35.0
100
AcDbArc
 50
265.8419327631676
 51
270.0000000000002
  0
ARC
  5
3AE
330
1F
100
AcDbEntity
  8
1
  6
Continuous
 62
     7
370
     9
100
AcDbCircle
 10
712.9317003628823
 20
292.8211508553654
 30
0.0
 40
35.0
100
AcDbArc
 50
89.99999999999991
 51
94.15806723683302
  0
ARC
  5
3AF
330
1F
100
AcDbEntity
  8
1
  6
Continuous
 62
     7
370
     9
100
AcDbCircle
 10
712.9317003628823
 20
292.8211508553654
 30
0.0
 40
35.0
100
AcDbArc
 50
205.8419327631676
 51
214.1580672368332
  0
CIRCLE
  5
3B0
330
1F
100
AcDbEntity
  8
1
  6
Continuous
 62
     7
370
     9
100
AcDbCircle
 10
712.9317003628823
 20
292.8211508553654
 30
0.0
 40
25.0
  0
ARC
  5
3B1
330
1F
100
AcDbEntity
  8
1
  6
Continuous
 62
     7
370
     9
100
AcDbCircle
 10
712.9317003628823
 20
292.8211508553654
 30
0.0
 40
31.49999999999997
100
AcDbArc
 50
180.0000000000004
 51
0.0
  0
CIRCLE
  5
3B2
330
1F
100
AcDbEntity
  8
1
  6
Continuous
 62
     7
370
     9
100
AcDbCircle
 10
712.9317003628823
 20
292.8211508553654
 30
0.0
 40
29.80699999999999
  0
CIRCLE
  5
3B3
330
1F
100
AcDbEntity
  8
1
  6
Continuous
 62
     7
370
     9
100
AcDbCircle
 10
712.9317003628823
 20
292.8211508553654
 30
0.0
 40
28.328
  0
CIRCLE
  5
3B4
330
1F
100
AcDbEntity
  8
1
  6
Continuous
 62
     7
370
     9
100
AcDbCircle
 10
712.9317003628823
 20
292.8211508553654
 30
0.0
 40
29.3723646765302
  0
ARC
  5
3B5
330
1F
100
AcDbEntity
  8
1
  6
Continuous
 62
     7
370
     9
100
AcDbCircle
 10
712.9317003628823
 20
292.8211508553654
 30
0.0
 40
31.49999999999997
100
AcDbArc
 50
0.0
 51
179.9999999999998
  0
CIRCLE
  5
3B6
330
1F
100
AcDbEntity
  8
1
  6
Continuous
 62
     7
370
     9
100
AcDbCircle
 10
712.9317003628823
 20
292.8211508553654
 30
0.0
 40
27.40000000000001
  0
LINE
  5
3B7
330
1F
100
AcDbEntity
  8
7
  6
DASHDOT
 62
     4
370
     9
100
AcDbLine
 10
655.4317003628823
 20
292.8211508553654
 30
0.0
 11
581.4317003628823
 21
292.8211508553654
 31
0.0
  0
LINE
  5
3B8
330
1F
100
AcDbEntity
  8
7
  6
PHANTOM
 62
     4
370
     9
100
AcDbLine
 10
601.3117003628823
 20
322.6281508553654
 30
0.0
 11
601.3117003628823
 21
263.0141508553654
 31
0.0
  0
LINE
  5
3B9
330
1F
100
AcDbEntity
  8
7
  6
PHANTOM
 62
     4
370
     9
100
AcDbLine
 10
635.5517003628823
 20
322.6281508553654
 30
0.0
 11
635.5517003628823
 21
263.0141508553654
 31
0.0
  0
LINE
  5
3BA
330
1F
100
AcDbEntity
  8
7
  6
DASHDOT
 62
     4
370
     9
100
AcDbLine
 10
677.4317003628823
 20
292.8211508553654
 30
0.0
 11
748.4317003628823
 21
292.8211508553654
 31
0.0
  0
LINE
  5
3BB
330
1F
100
AcDbEntity
  8
7
  6
DASHDOT
 62
     4
370
     9
100
AcDbLine
 10
712.9317003628823
 20
331.8211508553654
 30
0.0
 11
712.9317003628823
 21
253.8211508553654
 31
0.0
  0
LINE
  5
3BC
330
1F
100
AcDbEntity
  8
1
  6
Continuous
 62
     7
370
     9
100
AcDbLine
 10
922.1024278555382
 20
337.9711508553654
 30
0.0
 11
922.1024278555382
 21
267.6711508553655
 31
0.0
  0
LINE
  5
3BD
330
1F
100
AcDbEntity
  8
1
  6
Continuous
 62
     7
370
     9
100
AcDbLine
 10
875.8024278555382
 20
264.9403990396601
 30
0.0
 11
875.8024278555382
 21
340.7019026710708
 31
0.0
  0
LINE
  5
3BE
330
1F
100
AcDbEntity
  8
1
  6
Continuous
 62
     7
370
     9
100
AcDbLine
 10
851.0599750707487
 20
265.7136036401548
 30
0.0
 11
878.5108021518109
 21
264.8557620198805
 31
0.0
  0
LINE
  5
3BF
330
1F
100
AcDbEntity
  8
1
  6
Continuous
 62
     7
370
     9
100
AcDbLine
 10
892.6940535592654
 20
340.7865396908503
 30
0.0
 11
895.4024278555382
 21
339.2228590618309
 31
0.0
  0
LINE
  5
3C0
330
1F
100
AcDbEntity
  8
1
  6
Continuous
 62
     7
370
     9
100
AcDbLine
 10
849.1024278555382
 20
267.6711508553653
 30
0.0
 11
851.0599750707487
 21
265.7136036401548
 31
0.0
  0
LINE
  5
3C1
330
1F
100
AcDbEntity
  8
1
  6
Continuous
 62
     7
370
     9
100
AcDbLine
 10
879.102427855538
 20
262.8211508553654
 30
0.0
 11
880.3081992214782
 21
258.3211508553654
 31
0.0
  0
LINE
  5
3C2
330
1F
100
AcDbEntity
  8
1
  6
Continuous
 62
     7
370
     9
100
AcDbLine
 10
892.102427855538
 20
342.8211508553654
 30
0.0
 11
890.8966564895981
 21
347.3211508553654
 31
0.0
  0
LINE
  5
3C3
330
1F
100
AcDbEntity
  8
1
  6
Continuous
 62
     7
370
     9
100
AcDbLine
 10
892.1024278555382
 20
342.8211508553654
 30
0.0
 11
892.1024278555382
 21
342.7903793366681
 31
0.0
  0
LINE
  5
3C4
330
1F
100
AcDbEntity
  8
1
  6
Continuous
 62
     7
370
     9
100
AcDbLine
 10
922.1024278555382
 20
337.9711508553654
 30
0.0
 11
920.1448806403275
 21
339.928698070576
 31
0.0
  0
LINE
  5
3C5
330
1F
100
AcDbEntity
  8
1
  6
Continuous
 62
     7
370
     9
100
AcDbLine
 10
920.1448806403275
 20
339.928698070576
 30
0.0
 11
920.1448806403275
 21
265.7136036401548
 31
0.0
  0
LINE
  5
3C6
330
1F
100
AcDbEntity
  8
1
  6
Continuous
 62
     7
370
     9
100
AcDbLine
 10
922.1024278555382
 20
267.6711508553655
 30
0.0
 11
920.1448806403275
 21
265.7136036401548
 31
0.0
  0
LINE
  5
3C7
330
1F
100
AcDbEntity
  8
1
  6
Continuous
 62
     7
370
     9
100
AcDbLine
 10
879.102427855538
 20
342.8211508553654
 30
0.0
 11
880.3081992214782
 21
347.3211508553654
 31
0.0
  0
LINE
  5
3C8
330
1F
100
AcDbEntity
  8
1
  6
Continuous
 62
     7
370
     9
100
AcDbLine
 10
892.102427855538
 20
262.8211508553654
 30
0.0
 11
890.8966564895981
 21
258.3211508553654
 31
0.0
  0
LINE
  5
3C9
330
1F
100
AcDbEntity
  8
1
  6
Continuous
 62
     7
370
     9
100
AcDbLine
 10
880.3081992214782
 20
347.3211508553654
 30
0.0
 11
890.8966564895981
 21
347.3211508553654
 31
0.0
  0
LINE
  5
3CA
330
1F
100
AcDbEntity
  8
1
  6
Continuous
 62
     7
370
     9
100
AcDbLine
 10
849.1024278555382
 20
337.9711508553654
 30
0.0
 11
849.1024278555382
 21
267.6711508553655
 31
0.0
  0
LINE
  5
3CB
330
1F
100
AcDbEntity
  8
1
  6
Continuous
 62
     7
370
     9
100
AcDbLine
 10
879.1024278555382
 20
342.8211508553654
 30
0.0
 11
879.1024278555382
 21
342.7903792524774
 31
0.0
  0
LINE
  5
3CC
330
1F
100
AcDbEntity
  8
1
  6
Continuous
 62
     7
370
     9
100
AcDbLine
 10
849.1024278555382
 20
337.9711508553655
 30
0.0
 11
851.0599750707489
 21
339.928698070576
 31
0.0
  0
LINE
  5
3CD
330
1F
100
AcDbEntity
  8
1
  6
Continuous
 62
     7
370
     9
100
AcDbLine
 10
880.3081992214782
 20
322.3211508553654
 30
0.0
 11
890.8966564895982
 21
322.3211508553654
 31
0.0
  0
LINE
  5
3CE
330
1F
100
AcDbEntity
  8
1
  6
Continuous
 62
     7
370
     9
100
AcDbLine
 10
890.8966564895982
 20
322.3211508553654
 30
0.0
 11
890.8966564895982
 21
327.7121670067429
 31
0.0
  0
LINE
  5
3CF
330
1F
100
AcDbEntity
  8
1
  6
Continuous
 62
     7
370
     9
100
AcDbLine
 10
880.3081992214782
 20
322.3211508553654
 30
0.0
 11
880.3081992214782
 21
327.7121670067429
 31
0.0
  0
LINE
  5
3D0
330
1F
100
AcDbEntity
  8
1
  6
Continuous
 62
     7
370
     9
100
AcDbLine
 10
878.7818409574385
 20
263.3186245691149
 30
0.0
 11
878.510802151811
 21
264.8557620198806
 31
0.0
  0
LINE
  5
3D1
330
1F
100
AcDbEntity
  8
1
  6
Continuous
 62
     7
370
     9
100
AcDbLine
 10
892.6940535592653
 20
264.8557620198806
 30
0.0
 11
892.6940535592653
 21
340.7865396908504
 31
0.0
  0
LINE
  5
3D2
330
1F
100
AcDbEntity
  8
1
  6
Continuous
 62
     7
370
     9
100
AcDbLine
 10
878.5108021518109
 20
264.8557620198806
 30
0.0
 11
875.8024278555382
 21
266.4194426488999
 31
0.0
  0
LINE
  5
3D3
330
1F
100
AcDbEntity
  8
1
  6
Continuous
 62
     7
370
     9
100
AcDbLine
 10
880.3081992214782
 20
283.3211508553654
 30
0.0
 11
880.3081992214782
 21
277.9301347039879
 31
0.0
  0
LINE
  5
3D4
330
1F
100
AcDbEntity
  8
1
  6
Continuous
 62
     7
370
     9
100
AcDbLine
 10
880.3081992214782
 20
277.9301347039878
 30
0.0
 11
890.8966564895982
 21
277.9301347039878
 31
0.0
  0
LINE
  5
3D5
330
1F
100
AcDbEntity
  8
1
  6
Continuous
 62
     7
370
     9
100
AcDbLine
 10
890.8966564895982
 20
283.3211508553654
 30
0.0
 11
890.8966564895982
 21
277.9301347039879
 31
0.0
  0
LINE
  5
3D6
330
1F
100
AcDbEntity
  8
1
  6
Continuous
 62
     7
370
     9
100
AcDbLine
 10
880.3081992214782
 20
283.3211508553654
 30
0.0
 11
890.8966564895982
 21
283.3211508553654
 31
0.0
  0
LINE
  5
3D7
330
1F
100
AcDbEntity
  8
1
  6
Continuous
 62
     7
370
     9
100
AcDbLine
 10
879.1024278555382
 20
342.8211508553655
 30
0.0
 11
879.1024278555382
 21
262.8211508553653
 31
0.0
  0
LINE
  5
3D8
330
1F
100
AcDbEntity
  8
1
  6
Continuous
 62
     7
370
     9
100
AcDbLine
 10
892.1024278555382
 20
342.8211508553652
 30
0.0
 11
892.1024278555382
 21
262.8211508553655
 31
0.0
  0
LINE
  5
3D9
330
1F
100
AcDbEntity
  8
1
  6
Continuous
 62
     7
370
     9
100
AcDbLine
 10
880.3081992214782
 20
258.3211508553654
 30
0.0
 11
890.8966564895982
 21
258.3211508553654
 31
0.0
  0
LINE
  5
3DA
330
1F
100
AcDbEntity
  8
1
  6
Continuous
 62
     7
370
     9
100
AcDbLine
 10
880.3081992214782
 20
327.712167006743
 30
0.0
 11
890.8966564895982
 21
327.712167006743
 31
0.0
  0
LINE
  5
3DB
330
1F
100
AcDbEntity
  8
1
  6
Continuous
 62
     7
370
     9
100
AcDbLine
 10
920.1448806403275
 20
339.928698070576
 30
0.0
 11
892.6940535592653
 21
340.7865396908503
 31
0.0
  0
LINE
  5
3DC
330
1F
100
AcDbEntity
  8
1
  6
Continuous
 62
     7
370
     9
100
AcDbLine
 10
878.510802151811
 20
340.7865396908503
 30
0.0
 11
878.7768879343862
 21
342.2955871520273
 31
0.0
  0
LINE
  5
3DD
330
1F
100
AcDbEntity
  8
1
  6
Continuous
 62
     7
370
     9
100
AcDbLine
 10
878.5108021518109
 20
340.7865396908503
 30
0.0
 11
875.8024278555382
 21
339.2228590618309
 31
0.0
  0
LINE
  5
3DE
330
1F
100
AcDbEntity
  8
1
  6
Continuous
 62
     7
370
     9
100
AcDbLine
 10
851.0599750707487
 20
339.928698070576
 30
0.0
 11
851.0599750707487
 21
265.7136036401548
 31
0.0
  0
LINE
  5
3DF
330
1F
100
AcDbEntity
  8
1
  6
Continuous
 62
     7
370
     9
100
AcDbLine
 10
849.5332232719028
 20
267.2403554390008
 30
0.0
 11
875.8024278555382
 21
266.4194426488999
 31
0.0
  0
LINE
  5
3E0
330
1F
100
AcDbEntity
  8
1
  6
Continuous
 62
     7
370
     9
100
AcDbLine
 10
878.5108021518109
 20
264.8557620198806
 30
0.0
 11
878.5108021518109
 21
340.7865396908503
 31
0.0
  0
LINE
  5
3E1
330
1F
100
AcDbEntity
  8
1
  6
Continuous
 62
     7
370
     9
100
AcDbLine
 10
851.0599750707487
 20
339.928698070576
 30
0.0
 11
878.5108021518109
 21
340.7865396908503
 31
0.0
  0
LINE
  5
3E2
330
1F
100
AcDbEntity
  8
1
  6
Continuous
 62
     7
370
     9
100
AcDbLine
 10
921.6716324391735
 20
267.2403554390008
 30
0.0
 11
895.4024278555381
 21
266.4194426488999
 31
0.0
  0
LINE
  5
3E3
330
1F
100
AcDbEntity
  8
1
  6
Continuous
 62
     7
370
     9
100
AcDbLine
 10
892.6940535592654
 20
264.8557620198806
 30
0.0
 11
892.4279677766903
 21
263.3467145587034
 31
0.0
  0
LINE
  5
3E4
330
1F
100
AcDbEntity
  8
1
  6
Continuous
 62
     7
370
     9
100
AcDbLine
 10
892.6940535592653
 20
264.8557620198806
 30
0.0
 11
895.4024278555382
 21
266.4194426488999
 31
0.0
  0
LINE
  5
3E5
330
1F
100
AcDbEntity
  8
1
  6
Continuous
 62
     7
370
     9
100
AcDbLine
 10
920.1448806403275
 20
265.7136036401548
 30
0.0
 11
892.6940535592653
 21
264.8557620198806
 31
0.0
  0
LINE
  5
3E6
330
1F
100
AcDbEntity
  8
1
  6
Continuous
 62
     7
370
     9
100
AcDbLine
 10
921.6716324391735
 20
338.4019462717301
 30
0.0
 11
895.4024278555381
 21
339.2228590618309
 31
0.0
  0
LINE
  5
3E7
330
1F
100
AcDbEntity
  8
1
  6
Continuous
 62
     7
370
     9
100
AcDbLine
 10
849.5332232719028
 20
338.4019462717301
 30
0.0
 11
875.8024278555382
 21
339.2228590618309
 31
0.0
  0
LINE
  5
3E8
330
1F
100
AcDbEntity
  8
1
  6
Continuous
 62
     7
370
     9
100
AcDbLine
 10
892.6940535592654
 20
340.7865396908503
 30
0.0
 11
892.4279677766903
 21
342.2955871520275
 31
0.0
  0
LINE
  5
3E9
330
1F
100
AcDbEntity
  8
1
  6
Continuous
 62
     7
370
     9
100
AcDbLine
 10
895.4024278555382
 20
264.9403990396601
 30
0.0
 11
895.4024278555382
 21
340.7019026710708
 31
0.0
  0
ARC
  5
3EA
330
1F
100
AcDbEntity
  8
1
  6
Continuous
 62
     7
370
     9
100
AcDbCircle
 10
851.637896503557
 20
337.5166589310542
 30
0.0
 40
40.46453135198112
100
AcDbArc
 50
345.9777653578715
 51
14.02223464212875
  0
ARC
  5
3EB
330
1F
100
AcDbEntity
  8
1
  6
Continuous
 62
     7
370
     9
100
AcDbCircle
 10
878.6024278555382
 20
262.8519223740627
 30
0.0
 40
0.5
100
AcDbArc
 50
0.0
 51
68.97187332857696
  0
ARC
  5
3EC
330
1F
100
AcDbEntity
  8
1
  6
Continuous
 62
     7
370
     9
100
AcDbCircle
 10
733.820395552783
 20
302.8211508553654
 30
0.0
 40
158.2820323027551
100
AcDbArc
 50
352.9233064371322
 51
0.0000000000000412
  0
ARC
  5
3ED
330
1F
100
AcDbEntity
  8
1
  6
Continuous
 62
     7
370
     9
100
AcDbCircle
 10
919.5669592075193
 20
268.1256427796767
 30
0.0
 40
40.46453135198112
100
AcDbArc
 50
165.9777653578714
 51
194.0222346421291
  0
ARC
  5
3EE
330
1F
100
AcDbEntity
  8
1
  6
Continuous
 62
     7
370
     9
100
AcDbCircle
 10
1037.384460158293
 20
302.8211508553654
 30
0.0
 40
158.2820323027551
100
AcDbArc
 50
180.0000000000004
 51
187.0766935628686
  0
ARC
  5
3EF
330
1F
100
AcDbEntity
  8
1
  6
Continuous
 62
     7
370
     9
100
AcDbCircle
 10
851.637896503557
 20
268.1256427796767
 30
0.0
 40
40.46453135198112
100
AcDbArc
 50
345.9777653578715
 51
14.02223464212867
  0
ARC
  5
3F0
330
1F
100
AcDbEntity
  8
1
  6
Continuous
 62
     7
370
     9
100
AcDbCircle
 10
1037.384460158293
 20
302.8211508553654
 30
0.0
 40
158.2820323027551
100
AcDbArc
 50
172.9233064371317
 51
179.9999999999998
  0
ARC
  5
3F1
330
1F
100
AcDbEntity
  8
1
  6
Continuous
 62
     7
370
     9
100
AcDbCircle
 10
878.6024278555382
 20
342.7903793366681
 30
0.0
 40
0.5
100
AcDbArc
 50
291.0281266714106
 51
0.0
  0
ARC
  5
3F2
330
1F
100
AcDbEntity
  8
1
  6
Continuous
 62
     7
370
     9
100
AcDbCircle
 10
892.6024278555382
 20
342.7903793366681
 30
0.0
 40
0.5
100
AcDbArc
 50
179.9999999999998
 51
248.9718733285887
  0
ARC
  5
3F3
330
1F
100
AcDbEntity
  8
1
  6
Continuous
 62
     7
370
     9
100
AcDbCircle
 10
733.820395552783
 20
302.8211508553654
 30
0.0
 40
158.2820323027551
100
AcDbArc
 50
0.0000000000006584
 51
7.076693562868186
  0
ARC
  5
3F4
330
1F
100
AcDbEntity
  8
1
  6
Continuous
 62
     7
370
     9
100
AcDbCircle
 10
892.6024278555382
 20
262.8519223740627
 30
0.0
 40
0.5
100
AcDbArc
 50
111.0281266714109
 51
179.9999999999998
  0
ARC
  5
3F5
330
1F
100
AcDbEntity
  8
1
  6
Continuous
 62
     7
370
     9
100
AcDbCircle
 10
919.5669592075193
 20
337.5166589310542
 30
0.0
 40
40.46453135198112
100
AcDbArc
 50
165.9777653578712
 51
194.0222346421291
  0
LINE
  5
3F6
330
1F
100
AcDbEntity
  8
1
  6
Continuous
 62
     7
370
     9
100
AcDbLine
 10
995.2149324817416
 20
258.4301347039879
 30
0.0
 11
1028.989923229335
 21
277.9301347039879
 31
0.0
  0
LINE
  5
3F7
330
1F
100
AcDbEntity
  8
1
  6
Continuous
 62
     7
370
     9
100
AcDbLine
 10
955.2149324817416
 20
327.7121670067429
 30
0.0
 11
988.9899232293346
 21
347.2121670067429
 31
0.0
  0
LINE
  5
3F8
330
1F
100
AcDbEntity
  8
1
  6
Continuous
 62
     7
370
     9
100
AcDbLine
 10
1028.989923229335
 20
327.712167006743
 30
0.0
 11
995.2149324817416
 21
347.212167006743
 31
0.0
  0
LINE
  5
3F9
330
1F
100
AcDbEntity
  8
1
  6
Continuous
 62
     7
370
     9
100
AcDbLine
 10
988.9899232293347
 20
258.4301347039879
 30
0.0
 11
955.2149324817416
 21
277.9301347039878
 31
0.0
  0
LINE
  5
3FA
330
1F
100
AcDbEntity
  8
1
  6
Continuous
 62
     7
370
     9
100
AcDbLine
 10
1032.102427855538
 20
322.3211508553654
 30
0.0
 11
1032.102427855538
 21
283.3211508553654
 31
0.0
  0
LINE
  5
3FB
330
1F
100
AcDbEntity
  8
1
  6
Continuous
 62
     7
370
     9
100
AcDbLine
 10
952.1024278555382
 20
322.3211508553654
 30
0.0
 11
952.1024278555382
 21
283.3211508553654
 31
0.0
  0
ARC
  5
3FC
330
1F
100
AcDbEntity
  8
1
  6
Continuous
 62
     7
370
     9
100
AcDbCircle
 10
992.1024278555382
 20
302.8211508553654
 30
0.0
 40
44.5
100
AcDbArc
 50
325.9892335838334
 51
334.0107664161673
  0
ARC
  5
3FD
330
1F
100
AcDbEntity
  8
1
  6
Continuous
 62
     7
370
     9
100
AcDbCircle
 10
992.1024278555382
 20
302.8211508553654
 30
0.0
 40
44.5
100
AcDbArc
 50
25.98923358383295
 51
34.01076641616697
  0
ARC
  5
3FE
330
1F
100
AcDbEntity
  8
1
  6
Continuous
 62
     7
370
     9
100
AcDbCircle
 10
992.1024278555382
 20
302.8211508553654
 30
0.0
 40
44.5
100
AcDbArc
 50
145.989233583833
 51
154.010766416167
  0
ARC
  5
3FF
330
1F
100
AcDbEntity
  8
1
  6
Continuous
 62
     7
370
     9
100
AcDbCircle
 10
992.1024278555382
 20
302.8211508553654
 30
0.0
 40
44.5
100
AcDbArc
 50
205.9892335838333
 51
214.0107664161674
  0
CIRCLE
  5
400
330
1F
100
AcDbEntity
  8
1
  6
Continuous
 62
     7
370
     9
100
AcDbCircle
 10
992.1024278555382
 20
302.8211508553654
 30
0.0
 40
35.14999999999999
  0
CIRCLE
  5
401
330
1F
100
AcDbEntity
  8
1
  6
Continuous
 62
     7
370
     9
100
AcDbCircle
 10
992.1024278555382
 20
302.8211508553654
 30
0.0
 40
32.25
  0
CIRCLE
  5
402
330
1F
100
AcDbEntity
  8
1
  6
Continuous
 62
     7
370
     9
100
AcDbCircle
 10
992.1024278555382
 20
302.8211508553654
 30
0.0
 40
33.25
  0
ARC
  5
403
330
1F
100
AcDbEntity
  8
1
  6
Continuous
 62
     7
370
     9
100
AcDbCircle
 10
992.1024278555382
 20
302.8211508553654
 30
0.0
 40
44.5
100
AcDbArc
 50
85.9892335838329
 51
94.0107664161671
  0
ARC
  5
404
330
1F
100
AcDbEntity
  8
1
  6
Continuous
 62
     7
370
     9
100
AcDbCircle
 10
992.1024278555382
 20
302.8211508553654
 30
0.0
 40
44.5
100
AcDbArc
 50
265.9892335838334
 51
274.0107664161673
  0
CIRCLE
  5
405
330
1F
100
AcDbEntity
  8
1
  6
Continuous
 62
     7
370
     9
100
AcDbCircle
 10
992.1024278555382
 20
302.8211508553654
 30
0.0
 40
40.0
  0
CIRCLE
  5
406
330
1F
100
AcDbEntity
  8
1
  6
Continuous
 62
     7
370
     9
100
AcDbCircle
 10
992.1024278555382
 20
302.8211508553654
 30
0.0
 40
36.113
  0
CIRCLE
  5
407
330
1F
100
AcDbEntity
  8
1
  6
Continuous
 62
     7
370
     9
100
AcDbCircle
 10
992.1024278555382
 20
302.8211508553654
 30
0.0
 40
37.592
  0
LINE
  5
408
330
1F
100
AcDbEntity
  8
7
  6
DASHDOT
 62
     4
370
     9
100
AcDbLine
 10
926.1024278555382
 20
302.8211508553654
 30
0.0
 11
845.1024278555382
 21
302.8211508553654
 31
0.0
  0
LINE
  5
409
330
1F
100
AcDbEntity
  8
7
  6
PHANTOM
 62
     4
370
     9
100
AcDbLine
 10
866.5624278555382
 20
340.4131515690393
 30
0.0
 11
866.5624278555382
 21
265.2291501416915
 31
0.0
  0
LINE
  5
40A
330
1F
100
AcDbEntity
  8
7
  6
PHANTOM
 62
     4
370
     9
100
AcDbLine
 10
904.6424278555381
 20
340.4131515690392
 30
0.0
 11
904.6424278555381
 21
265.2291501416915
 31
0.0
  0
LINE
  5
40B
330
1F
100
AcDbEntity
  8
7
  6
DASHDOT
 62
     4
370
     9
100
AcDbLine
 10
948.1024278555382
 20
302.8211508553654
 30
0.0
 11
1036.102427855538
 21
302.8211508553654
 31
0.0
  0
LINE
  5
40C
330
1F
100
AcDbEntity
  8
7
  6
DASHDOT
 62
     4
370
     9
100
AcDbLine
 10
992.1024278555382
 20
351.8211508553654
 30
0.0
 11
992.1024278555382
 21
253.8211508553654
 31
0.0
  0
LINE
  5
40D
330
1F
100
AcDbEntity
  8
1
  6
Continuous
 62
     7
370
     9
100
AcDbLine
 10
465.7316055476135
 20
569.8998087576044
 30
0.0
 11
465.7316055476135
 21
580.6181517300682
 31
0.0
  0
LINE
  5
40E
330
1F
100
AcDbEntity
  8
1
  6
Continuous
 62
     7
370
     9
100
AcDbLine
 10
478.1156165439966
 20
485.4797204050872
 30
0.0
 11
514.6406845865754
 21
486.6211287814178
 31
0.0
  0
LINE
  5
40F
330
1F
100
AcDbEntity
  8
1
  6
Continuous
 62
     7
370
     9
100
AcDbLine
 10
477.123910393027
 20
602.4043545878694
 30
0.0
 11
477.123910393027
 21
482.4043545878694
 31
0.0
  0
LINE
  5
410
330
1F
100
AcDbEntity
  8
1
  6
Continuous
 62
     7
370
     9
100
AcDbLine
 10
426.6071361994786
 20
486.6211287814178
 30
0.0
 11
424.623910393027
 21
488.6043545878694
 31
0.0
  0
LINE
  5
411
330
1F
100
AcDbEntity
  8
1
  6
Continuous
 62
     7
370
     9
100
AcDbLine
 10
465.7316055476135
 20
608.4043545878694
 30
0.0
 11
475.5162152384401
 21
608.4043545878694
 31
0.0
  0
LINE
  5
412
330
1F
100
AcDbEntity
  8
1
  6
Continuous
 62
     7
370
     9
100
AcDbLine
 10
426.6071361994786
 20
598.187580394321
 30
0.0
 11
424.623910393027
 21
596.2043545878694
 31
0.0
  0
LINE
  5
413
330
1F
100
AcDbEntity
  8
1
  6
Continuous
 62
     7
370
     9
100
AcDbLine
 10
514.6406845865754
 20
598.1875803943211
 30
0.0
 11
516.623910393027
 21
596.2043545878695
 31
0.0
  0
LINE
  5
414
330
1F
100
AcDbEntity
  8
1
  6
Continuous
 62
     7
370
     9
100
AcDbLine
 10
516.623910393027
 20
596.2043545878694
 30
0.0
 11
516.623910393027
 21
488.6043545878695
 31
0.0
  0
LINE
  5
415
330
1F
100
AcDbEntity
  8
1
  6
Continuous
 62
     7
370
     9
100
AcDbLine
 10
424.623910393027
 20
596.2043545878694
 30
0.0
 11
424.623910393027
 21
488.6043545878695
 31
0.0
  0
LINE
  5
416
330
1F
100
AcDbEntity
  8
1
  6
Continuous
 62
     7
370
     9
100
AcDbLine
 10
465.7316055476135
 20
569.8998087576044
 30
0.0
 11
475.5162152384401
 21
569.8998087576044
 31
0.0
  0
LINE
  5
417
330
1F
100
AcDbEntity
  8
1
  6
Continuous
 62
     7
370
     9
100
AcDbLine
 10
480.8239103930268
 20
485.5643545878694
 30
0.0
 11
480.8239103930268
 21
599.2443545878695
 31
0.0
  0
LINE
  5
418
330
1F
100
AcDbEntity
  8
1
  6
Continuous
 62
     7
370
     9
100
AcDbLine
 10
478.1156165439966
 20
485.4797204050872
 30
0.0
 11
477.8410382863458
 21
483.9225097244091
 31
0.0
  0
LINE
  5
419
330
1F
100
AcDbEntity
  8
1
  6
Continuous
 62
     7
370
     9
100
AcDbLine
 10
478.1156165439966
 20
485.4797204050872
 30
0.0
 11
480.8239103930268
 21
487.0433545878694
 31
0.0
  0
LINE
  5
41A
330
1F
100
AcDbEntity
  8
1
  6
Continuous
 62
     7
370
     9
100
AcDbLine
 10
514.6406845865754
 20
486.6211287814178
 30
0.0
 11
516.623910393027
 21
488.6043545878694
 31
0.0
  0
LINE
  5
41B
330
1F
100
AcDbEntity
  8
1
  6
Continuous
 62
     7
370
     9
100
AcDbLine
 10
478.1156165439966
 20
485.4797204050872
 30
0.0
 11
478.1156165439966
 21
599.3289887706516
 31
0.0
  0
LINE
  5
41C
330
1F
100
AcDbEntity
  8
1
  6
Continuous
 62
     7
370
     9
100
AcDbLine
 10
465.7316055476135
 20
476.4043545878694
 30
0.0
 11
475.5162152384401
 21
476.4043545878694
 31
0.0
  0
LINE
  5
41D
330
1F
100
AcDbEntity
  8
1
  6
Continuous
 62
     7
370
     9
100
AcDbLine
 10
465.7316055476135
 20
514.9089004181344
 30
0.0
 11
475.5162152384401
 21
514.9089004181344
 31
0.0
  0
LINE
  5
41E
330
1F
100
AcDbEntity
  8
1
  6
Continuous
 62
     7
370
     9
100
AcDbLine
 10
465.7316055476135
 20
504.1905574456706
 30
0.0
 11
475.5162152384401
 21
504.1905574456706
 31
0.0
  0
LINE
  5
41F
330
1F
100
AcDbEntity
  8
1
  6
Continuous
 62
     7
370
     9
100
AcDbLine
 10
464.123910393027
 20
482.4043545878694
 30
0.0
 11
465.7316055476135
 21
476.4043545878694
 31
0.0
  0
LINE
  5
420
330
1F
100
AcDbEntity
  8
1
  6
Continuous
 62
     7
370
     9
100
AcDbLine
 10
477.123910393027
 20
482.4043545878694
 30
0.0
 11
475.5162152384401
 21
476.4043545878694
 31
0.0
  0
LINE
  5
421
330
1F
100
AcDbEntity
  8
1
  6
Continuous
 62
     7
370
     9
100
AcDbLine
 10
464.123910393027
 20
602.4043545878694
 30
0.0
 11
464.123910393027
 21
482.4043545878693
 31
0.0
  0
LINE
  5
422
330
1F
100
AcDbEntity
  8
1
  6
Continuous
 62
     7
370
     9
100
AcDbLine
 10
465.7316055476135
 20
514.9089004181344
 30
0.0
 11
465.7316055476135
 21
504.1905574456706
 31
0.0
  0
LINE
  5
423
330
1F
100
AcDbEntity
  8
1
  6
Continuous
 62
     7
370
     9
100
AcDbLine
 10
516.1673942639945
 20
488.1478384588372
 30
0.0
 11
480.8239103930268
 21
487.0433545878694
 31
0.0
  0
LINE
  5
424
330
1F
100
AcDbEntity
  8
1
  6
Continuous
 62
     7
370
     9
100
AcDbLine
 10
463.132204242057
 20
485.4797204050873
 30
0.0
 11
460.4239103930267
 21
487.0433545878694
 31
0.0
  0
LINE
  5
425
330
1F
100
AcDbEntity
  8
1
  6
Continuous
 62
     7
370
     9
100
AcDbLine
 10
426.6071361994786
 20
486.6211287814178
 30
0.0
 11
424.623910393027
 21
488.6043545878694
 31
0.0
  0
LINE
  5
426
330
1F
100
AcDbEntity
  8
1
  6
Continuous
 62
     7
370
     9
100
AcDbLine
 10
463.132204242057
 20
485.4797204050872
 30
0.0
 11
426.6071361994786
 21
486.6211287814178
 31
0.0
  0
LINE
  5
427
330
1F
100
AcDbEntity
  8
1
  6
Continuous
 62
     7
370
     9
100
AcDbLine
 10
426.6071361994786
 20
598.187580394321
 30
0.0
 11
424.623910393027
 21
596.2043545878695
 31
0.0
  0
LINE
  5
428
330
1F
100
AcDbEntity
  8
1
  6
Continuous
 62
     7
370
     9
100
AcDbLine
 10
514.6406845865754
 20
598.187580394321
 30
0.0
 11
514.6406845865754
 21
486.6211287814178
 31
0.0
  0
LINE
  5
429
330
1F
100
AcDbEntity
  8
1
  6
Continuous
 62
     7
370
     9
100
AcDbLine
 10
477.123910393027
 20
602.4043545878694
 30
0.0
 11
475.5162152384401
 21
608.4043545878694
 31
0.0
  0
LINE
  5
42A
330
1F
100
AcDbEntity
  8
1
  6
Continuous
 62
     7
370
     9
100
AcDbLine
 10
464.123910393027
 20
602.4043545878694
 30
0.0
 11
465.7316055476135
 21
608.4043545878694
 31
0.0
  0
LINE
  5
42B
330
1F
100
AcDbEntity
  8
1
  6
Continuous
 62
     7
370
     9
100
AcDbLine
 10
514.6406845865754
 20
486.6211287814178
 30
0.0
 11
516.623910393027
 21
488.6043545878694
 31
0.0
  0
LINE
  5
42C
330
1F
100
AcDbEntity
  8
1
  6
Continuous
 62
     7
370
     9
100
AcDbLine
 10
465.7316055476135
 20
580.6181517300682
 30
0.0
 11
475.5162152384401
 21
580.6181517300682
 31
0.0
  0
LINE
  5
42D
330
1F
100
AcDbEntity
  8
1
  6
Continuous
 62
     7
370
     9
100
AcDbLine
 10
475.5162152384401
 20
514.9089004181344
 30
0.0
 11
475.5162152384401
 21
504.1905574456706
 31
0.0
  0
LINE
  5
42E
330
1F
100
AcDbEntity
  8
1
  6
Continuous
 62
     7
370
     9
100
AcDbLine
 10
463.132204242057
 20
485.4797204050872
 30
0.0
 11
463.132204242057
 21
599.3289887706516
 31
0.0
  0
LINE
  5
42F
330
1F
100
AcDbEntity
  8
1
  6
Continuous
 62
     7
370
     9
100
AcDbLine
 10
463.132204242057
 20
485.4797204050872
 30
0.0
 11
463.4067824997082
 21
483.9225097244091
 31
0.0
  0
LINE
  5
430
330
1F
100
AcDbEntity
  8
1
  6
Continuous
 62
     7
370
     9
100
AcDbLine
 10
426.6071361994786
 20
598.187580394321
 30
0.0
 11
426.6071361994786
 21
486.6211287814178
 31
0.0
  0
LINE
  5
431
330
1F
100
AcDbEntity
  8
1
  6
Continuous
 62
     7
370
     9
100
AcDbLine
 10
478.1156165439966
 20
599.3289887706516
 30
0.0
 11
480.8239103930268
 21
597.7653545878694
 31
0.0
  0
LINE
  5
432
330
1F
100
AcDbEntity
  8
1
  6
Continuous
 62
     7
370
     9
100
AcDbLine
 10
425.080426522059
 20
488.1478384588372
 30
0.0
 11
460.4239103930267
 21
487.0433545878694
 31
0.0
  0
LINE
  5
433
330
1F
100
AcDbEntity
  8
1
  6
Continuous
 62
     7
370
     9
100
AcDbLine
 10
478.1156165439966
 20
599.3289887706516
 30
0.0
 11
477.8410382863458
 21
600.8861994513297
 31
0.0
  0
LINE
  5
434
330
1F
100
AcDbEntity
  8
1
  6
Continuous
 62
     7
370
     9
100
AcDbLine
 10
460.4239103930267
 20
485.5643545878694
 30
0.0
 11
460.4239103930267
 21
599.2443545878695
 31
0.0
  0
LINE
  5
435
330
1F
100
AcDbEntity
  8
1
  6
Continuous
 62
     7
370
     9
100
AcDbLine
 10
475.5162152384401
 20
569.8998087576044
 30
0.0
 11
475.5162152384401
 21
580.6181517300682
 31
0.0
  0
LINE
  5
436
330
1F
100
AcDbEntity
  8
1
  6
Continuous
 62
     7
370
     9
100
AcDbLine
 10
478.1156165439966
 20
599.3289887706516
 30
0.0
 11
514.6406845865754
 21
598.187580394321
 31
0.0
  0
LINE
  5
437
330
1F
100
AcDbEntity
  8
1
  6
Continuous
 62
     7
370
     9
100
AcDbLine
 10
516.1673942639945
 20
596.6608707169017
 30
0.0
 11
480.8239103930268
 21
597.7653545878694
 31
0.0
  0
LINE
  5
438
330
1F
100
AcDbEntity
  8
1
  6
Continuous
 62
     7
370
     9
100
AcDbLine
 10
463.132204242057
 20
599.3289887706516
 30
0.0
 11
460.4239103930267
 21
597.7653545878694
 31
0.0
  0
LINE
  5
439
330
1F
100
AcDbEntity
  8
1
  6
Continuous
 62
     7
370
     9
100
AcDbLine
 10
463.132204242057
 20
599.3289887706516
 30
0.0
 11
463.4067824997082
 21
600.8861994513297
 31
0.0
  0
LINE
  5
43A
330
1F
100
AcDbEntity
  8
1
  6
Continuous
 62
     7
370
     9
100
AcDbLine
 10
463.132204242057
 20
599.3289887706516
 30
0.0
 11
426.6071361994786
 21
598.187580394321
 31
0.0
  0
LINE
  5
43B
330
1F
100
AcDbEntity
  8
1
  6
Continuous
 62
     7
370
     9
100
AcDbLine
 10
425.080426522059
 20
596.6608707169017
 30
0.0
 11
460.4239103930267
 21
597.7653545878694
 31
0.0
  0
ARC
  5
43C
330
1F
100
AcDbEntity
  8
1
  6
Continuous
 62
     7
370
     9
100
AcDbCircle
 10
416.2905644487564
 20
594.5112531589688
 30
0.0
 40
60.83334594427052
100
AcDbArc
 50
346.7983032076985
 51
13.20169679230201
  0
ARC
  5
43D
330
1F
100
AcDbEntity
  8
1
  6
Continuous
 62
     7
370
     9
100
AcDbCircle
 10
463.123910393027
 20
482.9293506334324
 30
0.0
 40
1.0
100
AcDbArc
 50
0.0
 51
73.18989788802317
  0
ARC
  5
43E
330
1F
100
AcDbEntity
  8
1
  6
Continuous
 62
     7
370
     9
100
AcDbCircle
 10
524.9572563372976
 20
594.5112531589688
 30
0.0
 40
60.83334594427051
100
AcDbArc
 50
166.798303207698
 51
193.2016967923024
  0
ARC
  5
43F
330
1F
100
AcDbEntity
  8
1
  6
Continuous
 62
     7
370
     9
100
AcDbCircle
 10
463.123910393027
 20
601.8793585423065
 30
0.0
 40
1.0
100
AcDbArc
 50
286.8101021119755
 51
0.0
  0
ARC
  5
440
330
1F
100
AcDbEntity
  8
1
  6
Continuous
 62
     7
370
     9
100
AcDbCircle
 10
700.0469588471642
 20
542.4043545878694
 30
0.0
 40
235.9230484541373
100
AcDbArc
 50
173.3073019861134
 51
179.9999999999998
  0
ARC
  5
441
330
1F
100
AcDbEntity
  8
1
  6
Continuous
 62
     7
370
     9
100
AcDbCircle
 10
478.123910393027
 20
601.8793585423065
 30
0.0
 40
1.0
100
AcDbArc
 50
179.9999999999998
 51
253.1898978880238
  0
ARC
  5
442
330
1F
100
AcDbEntity
  8
1
  6
Continuous
 62
     7
370
     9
100
AcDbCircle
 10
478.123910393027
 20
482.9293506334324
 30
0.0
 40
1.0
100
AcDbArc
 50
106.8101021119768
 51
179.9999999999998
  0
ARC
  5
443
330
1F
100
AcDbEntity
  8
1
  6
Continuous
 62
     7
370
     9
100
AcDbCircle
 10
700.0469588471642
 20
542.4043545878694
 30
0.0
 40
235.9230484541373
100
AcDbArc
 50
180.0000000000004
 51
186.6926980138869
  0
ARC
  5
444
330
1F
100
AcDbEntity
  8
1
  6
Continuous
 62
     7
370
     9
100
AcDbCircle
 10
524.9572563372976
 20
490.29745601677
 30
0.0
 40
60.83334594427051
100
AcDbArc
 50
166.798303207698
 51
193.2016967923024
  0
ARC
  5
445
330
1F
100
AcDbEntity
  8
1
  6
Continuous
 62
     7
370
     9
100
AcDbCircle
 10
241.2008619388897
 20
542.4043545878694
 30
0.0
 40
235.9230484541373
100
AcDbArc
 50
353.3073019861138
 51
0.0000000000000552
  0
ARC
  5
446
330
1F
100
AcDbEntity
  8
1
  6
Continuous
 62
     7
370
     9
100
AcDbCircle
 10
416.2905644487564
 20
490.29745601677
 30
0.0
 40
60.83334594427052
100
AcDbArc
 50
346.7983032076984
 51
13.20169679230211
  0
ARC
  5
447
330
1F
100
AcDbEntity
  8
1
  6
Continuous
 62
     7
370
     9
100
AcDbCircle
 10
241.2008619388897
 20
542.4043545878694
 30
0.0
 40
235.9230484541373
100
AcDbArc
 50
0.0000000000006902
 51
6.69269801388652
  0
LINE
  5
448
330
1F
100
AcDbEntity
  8
1
  6
Continuous
 62
     7
370
     9
100
AcDbLine
 10
612.8121485934457
 20
476.6951032759356
 30
0.0
 11
660.4356721926083
 21
504.1905574456706
 31
0.0
  0
LINE
  5
449
330
1F
100
AcDbEntity
  8
1
  6
Continuous
 62
     7
370
     9
100
AcDbLine
 10
552.8121485934457
 20
580.6181517300682
 30
0.0
 11
600.4356721926083
 21
608.1136058998032
 31
0.0
  0
LINE
  5
44A
330
1F
100
AcDbEntity
  8
1
  6
Continuous
 62
     7
370
     9
100
AcDbLine
 10
546.623910393027
 20
569.8998087576044
 30
0.0
 11
546.623910393027
 21
514.9089004181344
 31
0.0
  0
LINE
  5
44B
330
1F
100
AcDbEntity
  8
1
  6
Continuous
 62
     7
370
     9
100
AcDbLine
 10
660.4356721926083
 20
580.6181517300682
 30
0.0
 11
612.8121485934457
 21
608.1136058998032
 31
0.0
  0
LINE
  5
44C
330
1F
100
AcDbEntity
  8
1
  6
Continuous
 62
     7
370
     9
100
AcDbLine
 10
600.4356721926083
 20
476.6951032759356
 30
0.0
 11
552.8121485934457
 21
504.1905574456706
 31
0.0
  0
LINE
  5
44D
330
1F
100
AcDbEntity
  8
1
  6
Continuous
 62
     7
370
     9
100
AcDbLine
 10
666.623910393027
 20
569.8998087576044
 30
0.0
 11
666.623910393027
 21
514.9089004181344
 31
0.0
  0
ARC
  5
44E
330
1F
100
AcDbEntity
  8
1
  6
Continuous
 62
     7
370
     9
100
AcDbCircle
 10
606.623910393027
 20
542.4043545878694
 30
0.0
 40
66.0
100
AcDbArc
 50
24.61997732865708
 51
35.38002267134293
  0
CIRCLE
  5
44F
330
1F
100
AcDbEntity
  8
1
  6
Continuous
 62
     7
370
     9
100
AcDbCircle
 10
606.623910393027
 20
542.4043545878694
 30
0.0
 40
53.79999999999998
  0
CIRCLE
  5
450
330
1F
100
AcDbEntity
  8
1
  6
Continuous
 62
     7
370
     9
100
AcDbCircle
 10
606.623910393027
 20
542.4043545878694
 30
0.0
 40
50.0
  0
CIRCLE
  5
451
330
1F
100
AcDbEntity
  8
1
  6
Continuous
 62
     7
370
     9
100
AcDbCircle
 10
606.623910393027
 20
542.4043545878694
 30
0.0
 40
51.0
  0
ARC
  5
452
330
1F
100
AcDbEntity
  8
1
  6
Continuous
 62
     7
370
     9
100
AcDbCircle
 10
606.623910393027
 20
542.4043545878694
 30
0.0
 40
66.0
100
AcDbArc
 50
264.6199773286575
 51
275.3800226713433
  0
ARC
  5
453
330
1F
100
AcDbEntity
  8
1
  6
Continuous
 62
     7
370
     9
100
AcDbCircle
 10
606.623910393027
 20
542.4043545878694
 30
0.0
 40
66.0
100
AcDbArc
 50
84.61997732865709
 51
95.38002267134294
  0
ARC
  5
454
330
1F
100
AcDbEntity
  8
1
  6
Continuous
 62
     7
370
     9
100
AcDbCircle
 10
606.623910393027
 20
542.4043545878694
 30
0.0
 40
66.0
100
AcDbArc
 50
324.6199773286575
 51
335.3800226713433
  0
ARC
  5
455
330
1F
100
AcDbEntity
  8
1
  6
Continuous
 62
     7
370
     9
100
AcDbCircle
 10
606.623910393027
 20
542.4043545878694
 30
0.0
 40
66.0
100
AcDbArc
 50
204.6199773286574
 51
215.3800226713433
  0
ARC
  5
456
330
1F
100
AcDbEntity
  8
1
  6
Continuous
 62
     7
370
     9
100
AcDbCircle
 10
606.623910393027
 20
542.4043545878694
 30
0.0
 40
66.0
100
AcDbArc
 50
144.6199773286571
 51
155.3800226713429
  0
CIRCLE
  5
457
330
1F
100
AcDbEntity
  8
1
  6
Continuous
 62
     7
370
     9
100
AcDbCircle
 10
606.623910393027
 20
542.4043545878694
 30
0.0
 40
60.0
  0
CIRCLE
  5
458
330
1F
100
AcDbEntity
  8
1
  6
Continuous
 62
     7
370
     9
100
AcDbCircle
 10
606.623910393027
 20
542.4043545878694
 30
0.0
 40
56.51499999999999
  0
CIRCLE
  5
459
330
1F
100
AcDbEntity
  8
1
  6
Continuous
 62
     7
370
     9
100
AcDbCircle
 10
606.623910393027
 20
542.4043545878694
 30
0.0
 40
55.036
  0
LINE
  5
45A
330
1F
100
AcDbEntity
  8
7
  6
DASHDOT
 62
     4
370
     9
100
AcDbLine
 10
521.123910393027
 20
542.4043545878694
 30
0.0
 11
420.123910393027
 21
542.4043545878694
 31
0.0
  0
LINE
  5
45B
330
1F
100
AcDbEntity
  8
7
  6
PHANTOM
 62
     4
370
     9
100
AcDbLine
 10
450.0239103930271
 20
598.9193545878694
 30
0.0
 11
450.0239103930271
 21
485.8893545878694
 31
0.0
  0
LINE
  5
45C
330
1F
100
AcDbEntity
  8
7
  6
PHANTOM
 62
     4
370
     9
100
AcDbLine
 10
491.2239103930269
 20
598.9193545878694
 30
0.0
 11
491.2239103930269
 21
485.8893545878694
 31
0.0
  0
LINE
  5
45D
330
1F
100
AcDbEntity
  8
7
  6
DASHDOT
 62
     4
370
     9
100
AcDbLine
 10
542.123910393027
 20
542.4043545878694
 30
0.0
 11
671.123910393027
 21
542.4043545878694
 31
0.0
  0
LINE
  5
45E
330
1F
100
AcDbEntity
  8
7
  6
DASHDOT
 62
     4
370
     9
100
AcDbLine
 10
606.623910393027
 20
612.9043545878694
 30
0.0
 11
606.623910393027
 21
471.9043545878694
 31
0.0
  0
VIEWPORT
  5
3F
330
1B
100
AcDbEntity
 67
     1
  8
0
100
AcDbViewport
 10
594.5
 20
420.5
 30
0.0
 40
1189.0
 41
841.0
 68
     1
 69
     1
 12
594.5
 22
420.5
 13
0.0
 23
0.0
 14
0.5
 24
0.5
 15
0.5
 25
0.5
 16
0.0
 26
0.0
 36
1.0
 17
0.0
 27
0.0
 37
0.0
 42
50.0
 43
0.0
 44
0.0
 45
9.0
 50
0.0
 51
0.0
 72
   100
 90
   557152
  1

281
     0
 71
     1
 74
     0
110
0.0
120
0.0
130
0.0
111
1.0
121
0.0
131
0.0
112
0.0
122
1.0
132
0.0
 79
     0
146
0.0
170
     0
 61
     5
292
     1
282
     1
141
0.0
142
0.0
 63
   256
  0
ENDSEC
  0
SECTION
  2
OBJECTS
  0
DICTIONARY
  5
C
330
0
100
AcDbDictionary
281
     1
  3
ACAD_GROUP
350
D
  3
ACAD_LAYOUT
350
1A
  3
ACAD_MATERIAL
350
3B
  3
ACAD_MLEADERSTYLE
350
480
  3
ACAD_MLINESTYLE
350
17
  3
ACAD_PLOTSETTINGS
350
19
  3
ACAD_PLOTSTYLENAME
350
E
  3
ACAD_TABLESTYLE
350
47F
  3
ACAD_VISUALSTYLE
350
2A
  0
DICTIONARY
  5
D
102
{ACAD_REACTORS
330
C
102
}
330
C
100
AcDbDictionary
281
     1
  0
DICTIONARY
  5
1A
102
{ACAD_REACTORS
330
C
102
}
330
C
100
AcDbDictionary
281
     1
  3
Layout1
350
1E
  3
Layout2
350
26
  3
Model
350
22
  0
DICTIONARY
  5
3B
102
{ACAD_REACTORS
330
C
102
}
330
C
100
AcDbDictionary
281
     1
  3
ByBlock
350
3D
  3
ByLayer
350
3C
  3
Global
350
3E
  0
DICTIONARY
  5
480
102
{ACAD_REACTORS
330
C
102
}
330
C
100
AcDbDictionary
281
     1
  0
DICTIONARY
  5
17
102
{ACAD_REACTORS
330
C
102
}
330
C
100
AcDbDictionary
281
     1
  3
Standard
350
18
  0
DICTIONARY
  5
19
102
{ACAD_REACTORS
330
C
102
}
330
C
100
AcDbDictionary
281
     1
  0
ACDBDICTIONARYWDFLT
  5
E
102
{ACAD_REACTORS
330
C
102
}
330
C
100
AcDbDictionary
281
     1
  3
Normal
350
F
100
AcDbDictionaryWithDefault
340
F
  0
DICTIONARY
  5
47F
102
{ACAD_REACTORS
330
C
102
}
330
C
100
AcDbDictionary
281
     1
  0
DICTIONARY
  5
2A
102
{ACAD_REACTORS
330
C
102
}
330
C
100
AcDbDictionary
281
     1
  3
2dWireframe
350
2F
  3
3D Hidden
350
31
  3
3dWireframe
350
30
  3
Basic
350
32
  3
Brighten
350
36
  3
ColorChange
350
3A
  3
Conceptual
350
34
  3
Dim
350
35
  3
Facepattern
350
39
  3
Flat
350
2B
  3
FlatWithEdges
350
2C
  3
Gouraud
350
2D
  3
GouraudWithEdges
350
2E
  3
Linepattern
350
38
  3
Realistic
350
33
  3
Thicken
350
37
  0
LAYOUT
  5
1E
102
{ACAD_REACTORS
330
1A
102
}
330
1A
100
AcDbPlotSettings
  1

  2
none_device
  4

  6

 40
0.0
 41
0.0
 42
0.0
 43
0.0
 44
0.0
 45
0.0
 46
0.0
 47
0.0
 48
0.0
 49
0.0
140
0.0
141
0.0
142
1.0
143
1.0
 70
   688
 72
     0
 73
     0
 74
     5
  7

 75
    16
 76
     0
 77
     2
 78
   300
147
1.0
148
0.0
149
0.0
100
AcDbLayout
  1
Layout1
 70
     1
 71
     1
 10
0.0
 20
0.0
 11
1189.0
 21
841.0
 12
0.0
 22
0.0
 32
0.0
 14
0.0
 24
0.0
 34
0.0
 15
1189.0
 25
841.0
 35
0.0
146
0.0
 13
0.0
 23
0.0
 33
0.0
 16
1.0
 26
0.0
 36
0.0
 17
0.0
 27
1.0
 37
0.0
 76
     0
330
1B
331
3F
  0
LAYOUT
  5
26
102
{ACAD_REACTORS
330
1A
102
}
330
1A
100
AcDbPlotSettings
  1

  2
none_device
  4

  6

 40
0.0
 41
0.0
 42
0.0
 43
0.0
 44
0.0
 45
0.0
 46
0.0
 47
0.0
 48
0.0
 49
0.0
140
0.0
141
0.0
142
1.0
143
1.0
 70
   688
 72
     0
 73
     0
 74
     5
  7

 75
    16
 76
     0
 77
     2
 78
   300
147
1.0
148
0.0
149
0.0
100
AcDbLayout
  1
Layout2
 70
     1
 71
     2
 10
0.0
 20
0.0
 11
0.0
 21
0.0
 12
0.0
 22
0.0
 32
0.0
 14
0.0
 24
0.0
 34
0.0
 15
0.0
 25
0.0
 35
0.0
146
0.0
 13
0.0
 23
0.0
 33
0.0
 16
1.0
 26
0.0
 36
0.0
 17
0.0
 27
1.0
 37
0.0
 76
     0
330
23
  0
LAYOUT
  5
22
102
{ACAD_REACTORS
330
1A
102
}
330
1A
100
AcDbPlotSettings
  1

  2
none_device
  4

  6

 40
0.0
 41
0.0
 42
0.0
 43
0.0
 44
0.0
 45
0.0
 46
0.0
 47
0.0
 48
0.0
 49
0.0
140
0.0
141
0.0
142
1.0
143
1.0
 70
  1712
 72
     0
 73
     0
 74
     0
  7

 75
     0
 76
     0
 77
     2
 78
   300
147
1.0
148
0.0
149
0.0
100
AcDbLayout
  1
Model
 70
     1
 71
     0
 10
0.0
 20
0.0
 11
1189.0
 21
841.0
 12
0.0
 22
0.0
 32
0.0
 14
34.00622083981338
 24
39.76116460478656
 34
0.0
 15
1036.102427855538
 25
612.9043545878694
 35
0.0
146
0.0
 13
0.0
 23
0.0
 33
0.0
 16
1.0
 26
0.0
 36
0.0
 17
0.0
 27
1.0
 37
0.0
 76
     0
330
1F
331
29
  0
MATERIAL
  5
3D
102
{ACAD_REACTORS
330
3B
102
}
330
3B
100
AcDbMaterial
  1
ByBlock
 72
     1
 94
      127
  0
MATERIAL
  5
3C
102
{ACAD_REACTORS
330
3B
102
}
330
3B
100
AcDbMaterial
  1
ByLayer
 72
     1
 94
      127
  0
MATERIAL
  5
3E
102
{ACAD_REACTORS
330
3B
102
}
330
3B
100
AcDbMaterial
  1
Global
 72
     1
 94
      127
  0
MLINESTYLE
  5
18
102
{ACAD_REACTORS
330
17
102
}
330
17
100
AcDbMlineStyle
  2
Standard
 70
     0
  3

 62
   256
 51
90.0
 52
90.0
 71
     2
 49
0.5
 62
   256
  6
BYLAYER
 49
-0.5
 62
   256
  6
BYLAYER
  0
ACDBPLACEHOLDER
  5
F
102
{ACAD_REACTORS
330
E
102
}
330
E
  0
VISUALSTYLE
  5
2F
102
{ACAD_REACTORS
330
2A
102
}
102
{ACAD_XDICTIONARY
360
467
102
}
330
2A
100
AcDbVisualStyle
  2
2dWireframe
 70
     4
 71
     0
 72
     2
 73
     0
 90
        0
 40
-0.6
 41
-30.0
 62
     5
 63
     7
421
 16777215
 74
     1
 91
        4
 64
     7
 65
   257
 75
     1
175
     1
 42
1.0
 92
        0
 66
   257
 43
1.0
 76
     1
 77
     6
 78
     2
 67
     7
 79
     5
170
     0
171
     0
290
     0
174
     0
 93
        1
 44
0.0
173
     0
291
     0
 45
0.0
  0
VISUALSTYLE
  5
31
102
{ACAD_REACTORS
330
2A
102
}
102
{ACAD_XDICTIONARY
360
46B
102
}
330
2A
100
AcDbVisualStyle
  2
3D Hidden
 70
     6
 71
     1
 72
     2
 73
     2
 90
        0
 40
-0.6
 41
-30.0
 62
     5
 63
     7
421
 16777215
 74
     2
 91
        2
 64
     7
 65
   257
 75
     2
175
     1
 42
40.0
 92
        0
 66
   257
 43
1.0
 76
     1
 77
     6
 78
     2
 67
     7
 79
     3
170
     0
171
     0
290
     0
174
     0
 93
        1
 44
0.0
173
     0
291
     0
 45
0.0
  0
VISUALSTYLE
  5
30
102
{ACAD_REACTORS
330
2A
102
}
102
{ACAD_XDICTIONARY
360
469
102
}
330
2A
100
AcDbVisualStyle
  2
3dWireframe
 70
     5
 71
     0
 72
     2
 73
     0
 90
        0
 40
-0.6
 41
-30.0
 62
     5
 63
     7
421
 16777215
 74
     1
 91
        4
 64
     7
 65
   257
 75
     1
175
     1
 42
1.0
 92
        0
 66
   257
 43
1.0
 76
     1
 77
     6
 78
     2
 67
     7
 79
     5
170
     0
171
     0
290
     0
174
     0
 93
        1
 44
0.0
173
     0
291
     0
 45
0.0
  0
VISUALSTYLE
  5
32
102
{ACAD_REACTORS
330
2A
102
}
102
{ACAD_XDICTIONARY
360
46D
102
}
330
2A
100
AcDbVisualStyle
  2
Basic
 70
     7
 71
     1
 72
     0
 73
     1
 90
        0
 40
-0.6
 41
-30.0
 62
     5
 63
     7
421
 16777215
 74
     0
 91
        4
 64
     7
 65
   257
 75
     1
175
     1
 42
1.0
 92
        8
 66
     7
 43
1.0
 76
     1
 77
     6
 78
     2
 67
     7
 79
     5
170
     0
171
     0
290
     0
174
     0
 93
        1
 44
0.0
173
     0
291
     1
 45
0.0
  0
VISUALSTYLE
  5
36
102
{ACAD_REACTORS
330
2A
102
}
102
{ACAD_XDICTIONARY
360
475
102
}
330
2A
100
AcDbVisualStyle
  2
Brighten
 70
    12
 71
     2
 72
     2
 73
     0
 90
        0
 40
-0.6
 41
-30.0
 62
     5
 63
     7
421
 16777215
 74
     1
 91
        4
 64
     7
 65
   257
 75
     1
175
     1
 42
1.0
 92
        8
 66
     7
 43
1.0
 76
     1
 77
     6
 78
     2
 67
     7
 79
     5
170
     0
171
     0
290
     0
174
     0
 93
        1
 44
50.0
173
     0
291
     1
 45
0.0
  0
VISUALSTYLE
  5
3A
102
{ACAD_REACTORS
330
2A
102
}
102
{ACAD_XDICTIONARY
360
47D
102
}
330
2A
100
AcDbVisualStyle
  2
ColorChange
 70
    16
 71
     2
 72
     2
 73
     3
 90
        0
 40
-0.6
 41
-30.0
 62
     5
 63
     8
421
  8421504
 74
     1
 91
        4
 64
     7
 65
   257
 75
     1
175
     1
 42
1.0
 92
        8
 66
     8
424
  8421504
 43
1.0
 76
     1
 77
     6
 78
     2
 67
     7
 79
     5
170
     0
171
     0
290
     0
174
     0
 93
        1
 44
0.0
173
     0
291
     1
 45
0.0
  0
VISUALSTYLE
  5
34
102
{ACAD_REACTORS
330
2A
102
}
102
{ACAD_XDICTIONARY
360
471
102
}
330
2A
100
AcDbVisualStyle
  2
Conceptual
 70
     9
 71
     3
 72
     2
 73
     0
 90
        0
 40
-0.6
 41
-30.0
 62
     5
 63
     7
421
 16777215
 74
     2
 91
        2
 64
     7
 65
   257
 75
     1
175
     1
 42
40.0
 92
        8
 66
     7
 43
1.0
 76
     1
 77
     6
 78
     2
 67
     7
 79
     3
170
     0
171
     0
290
     0
174
     0
 93
        1
 44
0.0
173
     0
291
     0
 45
0.0
  0
VISUALSTYLE
  5
35
102
{ACAD_REACTORS
330
2A
102
}
102
{ACAD_XDICTIONARY
360
473
102
}
330
2A
100
AcDbVisualStyle
  2
Dim
 70
    11
 71
     2
 72
     2
 73
     0
 90
        0
 40
-0.6
 41
-30.0
 62
     5
 63
     7
421
 16777215
 74
     1
 91
        4
 64
     7
 65
   257
 75
     1
175
     1
 42
1.0
 92
        8
 66
     7
 43
1.0
 76
     1
 77
     6
 78
     2
 67
     7
 79
     5
170
     0
171
     0
290
     0
174
     0
 93
        1
 44
-50.0
173
     0
291
     1
 45
0.0
  0
VISUALSTYLE
  5
39
102
{ACAD_REACTORS
330
2A
102
}
102
{ACAD_XDICTIONARY
360
47B
102
}
330
2A
100
AcDbVisualStyle
  2
Facepattern
 70
    15
 71
     2
 72
     2
 73
     0
 90
        0
 40
-0.6
 41
-30.0
 62
     5
 63
     7
421
 16777215
 74
     1
 91
        4
 64
     7
 65
   257
 75
     1
175
     1
 42
1.0
 92
        8
 66
     7
 43
1.0
 76
     1
 77
     6
 78
     2
 67
     7
 79
     5
170
     0
171
     0
290
     0
174
     0
 93
        1
 44
0.0
173
     0
291
     1
 45
0.0
  0
VISUALSTYLE
  5
2B
102
{ACAD_REACTORS
330
2A
102
}
102
{ACAD_XDICTIONARY
360
45F
102
}
330
2A
100
AcDbVisualStyle
  2
Flat
 70
     0
 71
     2
 72
     1
 73
     1
 90
        2
 40
-0.6
 41
30.0
 62
     5
 63
     7
421
 16777215
 74
     0
 91
        4
 64
     7
 65
   257
 75
     1
175
     1
 42
1.0
 92
        8
 66
     7
 43
1.0
 76
     1
 77
     6
 78
     2
 67
     7
 79
     5
170
     0
171
     0
290
     0
174
     0
 93
       13
 44
0.0
173
     0
291
     1
 45
0.0
  0
VISUALSTYLE
  5
2C
102
{ACAD_REACTORS
330
2A
102
}
102
{ACAD_XDICTIONARY
360
461
102
}
330
2A
100
AcDbVisualStyle
  2
FlatWithEdges
 70
     1
 71
     2
 72
     1
 73
     1
 90
        2
 40
-0.6
 41
30.0
 62
     5
 63
     7
421
 16777215
 74
     1
 91
        4
 64
     7
 65
   257
 75
     1
175
     1
 42
1.0
 92
        0
 66
   257
 43
1.0
 76
     1
 77
     6
 78
     2
 67
     7
 79
     5
170
     0
171
     0
290
     0
174
     0
 93
       13
 44
0.0
173
     0
291
     1
 45
0.0
  0
VISUALSTYLE
  5
2D
102
{ACAD_REACTORS
330
2A
102
}
102
{ACAD_XDICTIONARY
360
463
102
}
330
2A
100
AcDbVisualStyle
  2
Gouraud
 70
     2
 71
     2
 72
     2
 73
     1
 90
        2
 40
-0.6
 41
30.0
 62
     5
 63
     7
421
 16777215
 74
     0
 91
        4
 64
     7
 65
   257
 75
     1
175
     1
 42
1.0
 92
        0
 66
     7
 43
1.0
 76
     1
 77
     6
 78
     2
 67
     7
 79
     5
170
     0
171
     0
290
     0
174
     0
 93
       13
 44
0.0
173
     0
291
     1
 45
0.0
  0
VISUALSTYLE
  5
2E
102
{ACAD_REACTORS
330
2A
102
}
102
{ACAD_XDICTIONARY
360
465
102
}
330
2A
100
AcDbVisualStyle
  2
GouraudWithEdges
 70
     3
 71
     2
 72
     2
 73
     1
 90
        2
 40
-0.6
 41
30.0
 62
     5
 63
     7
421
 16777215
 74
     1
 91
        4
 64
     7
 65
   257
 75
     1
175
     1
 42
1.0
 92
        0
 66
   257
 43
1.0
 76
     1
 77
     6
 78
     2
 67
     7
 79
     5
170
     0
171
     0
290
     0
174
     0
 93
       13
 44
0.0
173
     0
291
     1
 45
0.0
  0
VISUALSTYLE
  5
38
102
{ACAD_REACTORS
330
2A
102
}
102
{ACAD_XDICTIONARY
360
479
102
}
330
2A
100
AcDbVisualStyle
  2
Linepattern
 70
    14
 71
     2
 72
     2
 73
     0
 90
        0
 40
-0.6
 41
-30.0
 62
     5
 63
     7
421
 16777215
 74
     1
 91
        4
 64
     7
 65
   257
 75
     7
175
     7
 42
1.0
 92
        8
 66
     7
 43
1.0
 76
     1
 77
     6
 78
     2
 67
     7
 79
     5
170
     0
171
     0
290
     0
174
     0
 93
        1
 44
0.0
173
     0
291
     1
 45
0.0
  0
VISUALSTYLE
  5
33
102
{ACAD_REACTORS
330
2A
102
}
102
{ACAD_XDICTIONARY
360
46F
102
}
330
2A
100
AcDbVisualStyle
  2
Realistic
 70
     8
 71
     2
 72
     2
 73
     0
 90
        0
 40
-0.6
 41
-30.0
 62
     5
 63
     7
421
 16777215
 74
     1
 91
        0
 64
     7
 65
   257
 75
     1
175
     1
 42
1.0
 92
        8
 66
     8
424
  7895160
 43
1.0
 76
     1
 77
     6
 78
     2
 67
     7
 79
     5
170
     0
171
     0
290
     0
174
     0
 93
       13
 44
0.0
173
     0
291
     0
 45
0.0
  0
VISUALSTYLE
  5
37
102
{ACAD_REACTORS
330
2A
102
}
102
{ACAD_XDICTIONARY
360
477
102
}
330
2A
100
AcDbVisualStyle
  2
Thicken
 70
    13
 71
     2
 72
     2
 73
     0
 90
        0
 40
-0.6
 41
-30.0
 62
     5
 63
     7
421
 16777215
 74
     1
 91
        4
 64
     7
 65
   257
 75
     1
175
     1
 42
1.0
 92
       12
 66
     7
 43
1.0
 76
     1
 77
     6
 78
     2
 67
     7
 79
     5
170
     0
171
     0
290
     0
174
     0
 93
        1
 44
0.0
173
     0
291
     1
 45
0.0
  0
DICTIONARY
  5
467
330
2F
100
AcDbDictionary
280
     1
281
     1
  3
ACAD_XREC_ROUNDTRIP
360
468
  0
DICTIONARY
  5
46B
330
31
100
AcDbDictionary
280
     1
281
     1
  3
ACAD_XREC_ROUNDTRIP
360
46C
  0
DICTIONARY
  5
469
330
30
100
AcDbDictionary
280
     1
281
     1
  3
ACAD_XREC_ROUNDTRIP
360
46A
  0
DICTIONARY
  5
46D
330
32
100
AcDbDictionary
280
     1
281
     1
  3
ACAD_XREC_ROUNDTRIP
360
46E
  0
DICTIONARY
  5
475
330
36
100
AcDbDictionary
280
     1
281
     1
  3
ACAD_XREC_ROUNDTRIP
360
476
  0
DICTIONARY
  5
47D
330
3A
100
AcDbDictionary
280
     1
281
     1
  3
ACAD_XREC_ROUNDTRIP
360
47E
  0
DICTIONARY
  5
471
330
34
100
AcDbDictionary
280
     1
281
     1
  3
ACAD_XREC_ROUNDTRIP
360
472
  0
DICTIONARY
  5
473
330
35
100
AcDbDictionary
280
     1
281
     1
  3
ACAD_XREC_ROUNDTRIP
360
474
  0
DICTIONARY
  5
47B
330
39
100
AcDbDictionary
280
     1
281
     1
  3
ACAD_XREC_ROUNDTRIP
360
47C
  0
DICTIONARY
  5
45F
330
2B
100
AcDbDictionary
280
     1
281
     1
  3
ACAD_XREC_ROUNDTRIP
360
460
  0
DICTIONARY
  5
461
330
2C
100
AcDbDictionary
280
     1
281
     1
  3
ACAD_XREC_ROUNDTRIP
360
462
  0
DICTIONARY
  5
463
330
2D
100
AcDbDictionary
280
     1
281
     1
  3
ACAD_XREC_ROUNDTRIP
360
464
  0
DICTIONARY
  5
465
330
2E
100
AcDbDictionary
280
     1
281
     1
  3
ACAD_XREC_ROUNDTRIP
360
466
  0
DICTIONARY
  5
479
330
38
100
AcDbDictionary
280
     1
281
     1
  3
ACAD_XREC_ROUNDTRIP
360
47A
  0
DICTIONARY
  5
46F
330
33
100
AcDbDictionary
280
     1
281
     1
  3
ACAD_XREC_ROUNDTRIP
360
470
  0
DICTIONARY
  5
477
330
37
100
AcDbDictionary
280
     1
281
     1
  3
ACAD_XREC_ROUNDTRIP
360
478
  0
XRECORD
  5
468
102
{ACAD_REACTORS
330
467
102
}
330
467
100
AcDbXrecord
280
     1
102
RTVSPropertyOp0
 70
     1
102
RTVSPropertyOp1
 70
     1
102
RTVSPropertyOp2
 70
     1
102
RTVSPropertyOp3
 70
     1
102
RTVSPropertyOp4
 70
     1
102
RTVSPropertyOp5
 70
     1
102
RTVSPropertyOp6
 70
     1
102
RTVSPropertyOp7
 70
     1
102
RTVSPropertyOp8
 70
     1
102
RTVSPropertyOp9
 70
     1
102
RTVSPropertyOp10
 70
     1
102
RTVSPropertyOp11
 70
     1
102
RTVSPropertyOp12
 70
     1
102
RTVSPropertyOp13
 70
     1
102
RTVSPropertyOp14
 70
     1
102
RTVSPropertyOp15
 70
     1
102
RTVSPropertyOp16
 70
     1
102
RTVSPropertyOp17
 70
     1
102
RTVSPropertyOp18
 70
     1
102
RTVSPropertyOp19
 70
     1
102
RTVSPropertyOp20
 70
     1
102
RTVSPropertyOp21
 70
     1
102
RTVSPropertyOp22
 70
     1
102
RTVSPropertyOp23
 70
     1
102
RTVSPropertyOp24
 70
     1
102
RTVSPropertyOp25
 70
     1
102
RTVSPropertyOp26
 70
     1
102
RTVSPropertyOp27
 70
     1
102
RTVSPropertyOp28
 70
     1
102
RTVSPropertyOp29
 70
     1
102
RTVSPropertyOp30
 70
     1
102
RTVSPropertyOp31
 70
     1
102
RTVSPropertyOp32
 70
     1
  0
XRECORD
  5
46C
102
{ACAD_REACTORS
330
46B
102
}
330
46B
100
AcDbXrecord
280
     1
102
RTVSPropertyOp0
 70
     1
102
RTVSPropertyOp1
 70
     1
102
RTVSPropertyOp2
 70
     1
102
RTVSPropertyOp3
 70
     1
102
RTVSPropertyOp4
 70
     1
102
RTVSPropertyOp5
 70
     1
102
RTVSPropertyOp6
 70
     1
102
RTVSPropertyOp7
 70
     1
102
RTVSPropertyOp8
 70
     1
102
RTVSPropertyOp9
 70
     1
102
RTVSPropertyOp10
 70
     1
102
RTVSPropertyOp11
 70
     1
102
RTVSPropertyOp12
 70
     1
102
RTVSPropertyOp13
 70
     1
102
RTVSPropertyOp14
 70
     1
102
RTVSPropertyOp15
 70
     1
102
RTVSPropertyOp16
 70
     1
102
RTVSPropertyOp17
 70
     1
102
RTVSPropertyOp18
 70
     1
102
RTVSPropertyOp19
 70
     1
102
RTVSPropertyOp20
 70
     1
102
RTVSPropertyOp21
 70
     1
102
RTVSPropertyOp22
 70
     1
102
RTVSPropertyOp23
 70
     1
102
RTVSPropertyOp24
 70
     1
102
RTVSPropertyOp25
 70
     1
102
RTVSPropertyOp26
 70
     1
102
RTVSPropertyOp27
 70
     1
102
RTVSPropertyOp28
 70
     1
102
RTVSPropertyOp29
 70
     1
102
RTVSPropertyOp30
 70
     1
102
RTVSPropertyOp31
 70
     1
102
RTVSPropertyOp32
 70
     1
  0
XRECORD
  5
46A
102
{ACAD_REACTORS
330
469
102
}
330
469
100
AcDbXrecord
280
     1
102
RTVSPropertyOp0
 70
     1
102
RTVSPropertyOp1
 70
     1
102
RTVSPropertyOp2
 70
     1
102
RTVSPropertyOp3
 70
     1
102
RTVSPropertyOp4
 70
     1
102
RTVSPropertyOp5
 70
     1
102
RTVSPropertyOp6
 70
     1
102
RTVSPropertyOp7
 70
     1
102
RTVSPropertyOp8
 70
     1
102
RTVSPropertyOp9
 70
     1
102
RTVSPropertyOp10
 70
     1
102
RTVSPropertyOp11
 70
     1
102
RTVSPropertyOp12
 70
     1
102
RTVSPropertyOp13
 70
     1
102
RTVSPropertyOp14
 70
     1
102
RTVSPropertyOp15
 70
     1
102
RTVSPropertyOp16
 70
     1
102
RTVSPropertyOp17
 70
     1
102
RTVSPropertyOp18
 70
     1
102
RTVSPropertyOp19
 70
     1
102
RTVSPropertyOp20
 70
     1
102
RTVSPropertyOp21
 70
     1
102
RTVSPropertyOp22
 70
     1
102
RTVSPropertyOp23
 70
     1
102
RTVSPropertyOp24
 70
     1
102
RTVSPropertyOp25
 70
     1
102
RTVSPropertyOp26
 70
     1
102
RTVSPropertyOp27
 70
     1
102
RTVSPropertyOp28
 70
     1
102
RTVSPropertyOp29
 70
     1
102
RTVSPropertyOp30
 70
     1
102
RTVSPropertyOp31
 70
     1
102
RTVSPropertyOp32
 70
     1
  0
XRECORD
  5
46E
102
{ACAD_REACTORS
330
46D
102
}
330
46D
100
AcDbXrecord
280
     1
102
RTVSPropertyOp0
 70
     1
102
RTVSPropertyOp1
 70
     1
102
RTVSPropertyOp2
 70
     1
102
RTVSPropertyOp3
 70
     1
102
RTVSPropertyOp4
 70
     1
102
RTVSPropertyOp5
 70
     1
102
RTVSPropertyOp6
 70
     1
102
RTVSPropertyOp7
 70
     1
102
RTVSPropertyOp8
 70
     1
102
RTVSPropertyOp9
 70
     1
102
RTVSPropertyOp10
 70
     1
102
RTVSPropertyOp11
 70
     1
102
RTVSPropertyOp12
 70
     1
102
RTVSPropertyOp13
 70
     1
102
RTVSPropertyOp14
 70
     1
102
RTVSPropertyOp15
 70
     1
102
RTVSPropertyOp16
 70
     1
102
RTVSPropertyOp17
 70
     1
102
RTVSPropertyOp18
 70
     1
102
RTVSPropertyOp19
 70
     1
102
RTVSPropertyOp20
 70
     1
102
RTVSPropertyOp21
 70
     1
102
RTVSPropertyOp22
 70
     1
102
RTVSPropertyOp23
 70
     1
102
RTVSPropertyOp24
 70
     1
102
RTVSPropertyOp25
 70
     1
102
RTVSPropertyOp26
 70
     1
102
RTVSPropertyOp27
 70
     1
102
RTVSPropertyOp28
 70
     1
102
RTVSPropertyOp29
 70
     1
102
RTVSPropertyOp30
 70
     1
102
RTVSPropertyOp31
 70
     1
102
RTVSPropertyOp32
 70
     1
  0
XRECORD
  5
476
102
{ACAD_REACTORS
330
475
102
}
330
475
100
AcDbXrecord
280
     1
102
RTVSPropertyOp0
 70
     1
102
RTVSPropertyOp1
 70
     1
102
RTVSPropertyOp2
 70
     1
102
RTVSPropertyOp3
 70
     1
102
RTVSPropertyOp4
 70
     1
102
RTVSPropertyOp5
 70
     1
102
RTVSPropertyOp6
 70
     1
102
RTVSPropertyOp7
 70
     1
102
RTVSPropertyOp8
 70
     1
102
RTVSPropertyOp9
 70
     1
102
RTVSPropertyOp10
 70
     1
102
RTVSPropertyOp11
 70
     1
102
RTVSPropertyOp12
 70
     1
102
RTVSPropertyOp13
 70
     1
102
RTVSPropertyOp14
 70
     1
102
RTVSPropertyOp15
 70
     1
102
RTVSPropertyOp16
 70
     1
102
RTVSPropertyOp17
 70
     1
102
RTVSPropertyOp18
 70
     1
102
RTVSPropertyOp19
 70
     1
102
RTVSPropertyOp20
 70
     1
102
RTVSPropertyOp21
 70
     1
102
RTVSPropertyOp22
 70
     1
102
RTVSPropertyOp23
 70
     1
102
RTVSPropertyOp24
 70
     1
102
RTVSPropertyOp25
 70
     1
102
RTVSPropertyOp26
 70
     1
102
RTVSPropertyOp27
 70
     1
102
RTVSPropertyOp28
 70
     1
102
RTVSPropertyOp29
 70
     1
102
RTVSPropertyOp30
 70
     1
102
RTVSPropertyOp31
 70
     1
102
RTVSPropertyOp32
 70
     1
  0
XRECORD
  5
47E
102
{ACAD_REACTORS
330
47D
102
}
330
47D
100
AcDbXrecord
280
     1
102
RTVSPropertyOp0
 70
     1
102
RTVSPropertyOp1
 70
     1
102
RTVSPropertyOp2
 70
     1
102
RTVSPropertyOp3
 70
     1
102
RTVSPropertyOp4
 70
     1
102
RTVSPropertyOp5
 70
     1
102
RTVSPropertyOp6
 70
     1
102
RTVSPropertyOp7
 70
     1
102
RTVSPropertyOp8
 70
     1
102
RTVSPropertyOp9
 70
     1
102
RTVSPropertyOp10
 70
     1
102
RTVSPropertyOp11
 70
     1
102
RTVSPropertyOp12
 70
     1
102
RTVSPropertyOp13
 70
     1
102
RTVSPropertyOp14
 70
     1
102
RTVSPropertyOp15
 70
     1
102
RTVSPropertyOp16
 70
     1
102
RTVSPropertyOp17
 70
     1
102
RTVSPropertyOp18
 70
     1
102
RTVSPropertyOp19
 70
     1
102
RTVSPropertyOp20
 70
     1
102
RTVSPropertyOp21
 70
     1
102
RTVSPropertyOp22
 70
     1
102
RTVSPropertyOp23
 70
     1
102
RTVSPropertyOp24
 70
     1
102
RTVSPropertyOp25
 70
     1
102
RTVSPropertyOp26
 70
     1
102
RTVSPropertyOp27
 70
     1
102
RTVSPropertyOp28
 70
     1
102
RTVSPropertyOp29
 70
     1
102
RTVSPropertyOp30
 70
     1
102
RTVSPropertyOp31
 70
     1
102
RTVSPropertyOp32
 70
     1
  0
XRECORD
  5
472
102
{ACAD_REACTORS
330
471
102
}
330
471
100
AcDbXrecord
280
     1
102
RTVSPropertyOp0
 70
     1
102
RTVSPropertyOp1
 70
     1
102
RTVSPropertyOp2
 70
     1
102
RTVSPropertyOp3
 70
     1
102
RTVSPropertyOp4
 70
     1
102
RTVSPropertyOp5
 70
     1
102
RTVSPropertyOp6
 70
     1
102
RTVSPropertyOp7
 70
     1
102
RTVSPropertyOp8
 70
     1
102
RTVSPropertyOp9
 70
     1
102
RTVSPropertyOp10
 70
     1
102
RTVSPropertyOp11
 70
     1
102
RTVSPropertyOp12
 70
     1
102
RTVSPropertyOp13
 70
     1
102
RTVSPropertyOp14
 70
     1
102
RTVSPropertyOp15
 70
     1
102
RTVSPropertyOp16
 70
     1
102
RTVSPropertyOp17
 70
     1
102
RTVSPropertyOp18
 70
     1
102
RTVSPropertyOp19
 70
     1
102
RTVSPropertyOp20
 70
     1
102
RTVSPropertyOp21
 70
     1
102
RTVSPropertyOp22
 70
     1
102
RTVSPropertyOp23
 70
     1
102
RTVSPropertyOp24
 70
     1
102
RTVSPropertyOp25
 70
     1
102
RTVSPropertyOp26
 70
     1
102
RTVSPropertyOp27
 70
     1
102
RTVSPropertyOp28
 70
     1
102
RTVSPropertyOp29
 70
     1
102
RTVSPropertyOp30
 70
     1
102
RTVSPropertyOp31
 70
     1
102
RTVSPropertyOp32
 70
     1
  0
XRECORD
  5
474
102
{ACAD_REACTORS
330
473
102
}
330
473
100
AcDbXrecord
280
     1
102
RTVSPropertyOp0
 70
     1
102
RTVSPropertyOp1
 70
     1
102
RTVSPropertyOp2
 70
     1
102
RTVSPropertyOp3
 70
     1
102
RTVSPropertyOp4
 70
     1
102
RTVSPropertyOp5
 70
     1
102
RTVSPropertyOp6
 70
     1
102
RTVSPropertyOp7
 70
     1
102
RTVSPropertyOp8
 70
     1
102
RTVSPropertyOp9
 70
     1
102
RTVSPropertyOp10
 70
     1
102
RTVSPropertyOp11
 70
     1
102
RTVSPropertyOp12
 70
     1
102
RTVSPropertyOp13
 70
     1
102
RTVSPropertyOp14
 70
     1
102
RTVSPropertyOp15
 70
     1
102
RTVSPropertyOp16
 70
     1
102
RTVSPropertyOp17
 70
     1
102
RTVSPropertyOp18
 70
     1
102
RTVSPropertyOp19
 70
     1
102
RTVSPropertyOp20
 70
     1
102
RTVSPropertyOp21
 70
     1
102
RTVSPropertyOp22
 70
     1
102
RTVSPropertyOp23
 70
     1
102
RTVSPropertyOp24
 70
     1
102
RTVSPropertyOp25
 70
     1
102
RTVSPropertyOp26
 70
     1
102
RTVSPropertyOp27
 70
     1
102
RTVSPropertyOp28
 70
     1
102
RTVSPropertyOp29
 70
     1
102
RTVSPropertyOp30
 70
     1
102
RTVSPropertyOp31
 70
     1
102
RTVSPropertyOp32
 70
     1
  0
XRECORD
  5
47C
102
{ACAD_REACTORS
330
47B
102
}
330
47B
100
AcDbXrecord
280
     1
102
RTVSPropertyOp0
 70
     1
102
RTVSPropertyOp1
 70
     1
102
RTVSPropertyOp2
 70
     1
102
RTVSPropertyOp3
 70
     1
102
RTVSPropertyOp4
 70
     1
102
RTVSPropertyOp5
 70
     1
102
RTVSPropertyOp6
 70
     1
102
RTVSPropertyOp7
 70
     1
102
RTVSPropertyOp8
 70
     1
102
RTVSPropertyOp9
 70
     1
102
RTVSPropertyOp10
 70
     1
102
RTVSPropertyOp11
 70
     1
102
RTVSPropertyOp12
 70
     1
102
RTVSPropertyOp13
 70
     1
102
RTVSPropertyOp14
 70
     1
102
RTVSPropertyOp15
 70
     1
102
RTVSPropertyOp16
 70
     1
102
RTVSPropertyOp17
 70
     1
102
RTVSPropertyOp18
 70
     1
102
RTVSPropertyOp19
 70
     1
102
RTVSPropertyOp20
 70
     1
102
RTVSPropertyOp21
 70
     1
102
RTVSPropertyOp22
 70
     1
102
RTVSPropertyOp23
 70
     1
102
RTVSPropertyOp24
 70
     1
102
RTVSPropertyOp25
 70
     1
102
RTVSPropertyOp26
 70
     1
102
RTVSPropertyOp27
 70
     1
102
RTVSPropertyOp28
 70
     1
102
RTVSPropertyOp29
 70
     1
102
RTVSPropertyOp30
 70
     1
102
RTVSPropertyOp31
 70
     1
102
RTVSPropertyOp32
 70
     1
  0
XRECORD
  5
460
102
{ACAD_REACTORS
330
45F
102
}
330
45F
100
AcDbXrecord
280
     1
102
RTVSPropertyOp0
 70
     1
102
RTVSPropertyOp1
 70
     1
102
RTVSPropertyOp2
 70
     1
102
RTVSPropertyOp3
 70
     1
102
RTVSPropertyOp4
 70
     1
102
RTVSPropertyOp5
 70
     1
102
RTVSPropertyOp6
 70
     1
102
RTVSPropertyOp7
 70
     1
102
RTVSPropertyOp8
 70
     1
102
RTVSPropertyOp9
 70
     1
102
RTVSPropertyOp10
 70
     1
102
RTVSPropertyOp11
 70
     1
102
RTVSPropertyOp12
 70
     1
102
RTVSPropertyOp13
 70
     1
102
RTVSPropertyOp14
 70
     1
102
RTVSPropertyOp15
 70
     1
102
RTVSPropertyOp16
 70
     1
102
RTVSPropertyOp17
 70
     1
102
RTVSPropertyOp18
 70
     1
102
RTVSPropertyOp19
 70
     1
102
RTVSPropertyOp20
 70
     1
102
RTVSPropertyOp21
 70
     1
102
RTVSPropertyOp22
 70
     1
102
RTVSPropertyOp23
 70
     1
102
RTVSPropertyOp24
 70
     1
102
RTVSPropertyOp25
 70
     1
102
RTVSPropertyOp26
 70
     1
102
RTVSPropertyOp27
 70
     1
102
RTVSPropertyOp28
 70
     1
102
RTVSPropertyOp29
 70
     1
102
RTVSPropertyOp30
 70
     1
102
RTVSPropertyOp31
 70
     1
102
RTVSPropertyOp32
 70
     1
  0
XRECORD
  5
462
102
{ACAD_REACTORS
330
461
102
}
330
461
100
AcDbXrecord
280
     1
102
RTVSPropertyOp0
 70
     1
102
RTVSPropertyOp1
 70
     1
102
RTVSPropertyOp2
 70
     1
102
RTVSPropertyOp3
 70
     1
102
RTVSPropertyOp4
 70
     1
102
RTVSPropertyOp5
 70
     1
102
RTVSPropertyOp6
 70
     1
102
RTVSPropertyOp7
 70
     1
102
RTVSPropertyOp8
 70
     1
102
RTVSPropertyOp9
 70
     1
102
RTVSPropertyOp10
 70
     1
102
RTVSPropertyOp11
 70
     1
102
RTVSPropertyOp12
 70
     1
102
RTVSPropertyOp13
 70
     1
102
RTVSPropertyOp14
 70
     1
102
RTVSPropertyOp15
 70
     1
102
RTVSPropertyOp16
 70
     1
102
RTVSPropertyOp17
 70
     1
102
RTVSPropertyOp18
 70
     1
102
RTVSPropertyOp19
 70
     1
102
RTVSPropertyOp20
 70
     1
102
RTVSPropertyOp21
 70
     1
102
RTVSPropertyOp22
 70
     1
102
RTVSPropertyOp23
 70
     1
102
RTVSPropertyOp24
 70
     1
102
RTVSPropertyOp25
 70
     1
102
RTVSPropertyOp26
 70
     1
102
RTVSPropertyOp27
 70
     1
102
RTVSPropertyOp28
 70
     1
102
RTVSPropertyOp29
 70
     1
102
RTVSPropertyOp30
 70
     1
102
RTVSPropertyOp31
 70
     1
102
RTVSPropertyOp32
 70
     1
  0
XRECORD
  5
464
102
{ACAD_REACTORS
330
463
102
}
330
463
100
AcDbXrecord
280
     1
102
RTVSPropertyOp0
 70
     1
102
RTVSPropertyOp1
 70
     1
102
RTVSPropertyOp2
 70
     1
102
RTVSPropertyOp3
 70
     1
102
RTVSPropertyOp4
 70
     1
102
RTVSPropertyOp5
 70
     1
102
RTVSPropertyOp6
 70
     1
102
RTVSPropertyOp7
 70
     1
102
RTVSPropertyOp8
 70
     1
102
RTVSPropertyOp9
 70
     1
102
RTVSPropertyOp10
 70
     1
102
RTVSPropertyOp11
 70
     1
102
RTVSPropertyOp12
 70
     1
102
RTVSPropertyOp13
 70
     1
102
RTVSPropertyOp14
 70
     1
102
RTVSPropertyOp15
 70
     1
102
RTVSPropertyOp16
 70
     1
102
RTVSPropertyOp17
 70
     1
102
RTVSPropertyOp18
 70
     1
102
RTVSPropertyOp19
 70
     1
102
RTVSPropertyOp20
 70
     1
102
RTVSPropertyOp21
 70
     1
102
RTVSPropertyOp22
 70
     1
102
RTVSPropertyOp23
 70
     1
102
RTVSPropertyOp24
 70
     1
102
RTVSPropertyOp25
 70
     1
102
RTVSPropertyOp26
 70
     1
102
RTVSPropertyOp27
 70
     1
102
RTVSPropertyOp28
 70
     1
102
RTVSPropertyOp29
 70
     1
102
RTVSPropertyOp30
 70
     1
102
RTVSPropertyOp31
 70
     1
102
RTVSPropertyOp32
 70
     1
  0
XRECORD
  5
466
102
{ACAD_REACTORS
330
465
102
}
330
465
100
AcDbXrecord
280
     1
102
RTVSPropertyOp0
 70
     1
102
RTVSPropertyOp1
 70
     1
102
RTVSPropertyOp2
 70
     1
102
RTVSPropertyOp3
 70
     1
102
RTVSPropertyOp4
 70
     1
102
RTVSPropertyOp5
 70
     1
102
RTVSPropertyOp6
 70
     1
102
RTVSPropertyOp7
 70
     1
102
RTVSPropertyOp8
 70
     1
102
RTVSPropertyOp9
 70
     1
102
RTVSPropertyOp10
 70
     1
102
RTVSPropertyOp11
 70
     1
102
RTVSPropertyOp12
 70
     1
102
RTVSPropertyOp13
 70
     1
102
RTVSPropertyOp14
 70
     1
102
RTVSPropertyOp15
 70
     1
102
RTVSPropertyOp16
 70
     1
102
RTVSPropertyOp17
 70
     1
102
RTVSPropertyOp18
 70
     1
102
RTVSPropertyOp19
 70
     1
102
RTVSPropertyOp20
 70
     1
102
RTVSPropertyOp21
 70
     1
102
RTVSPropertyOp22
 70
     1
102
RTVSPropertyOp23
 70
     1
102
RTVSPropertyOp24
 70
     1
102
RTVSPropertyOp25
 70
     1
102
RTVSPropertyOp26
 70
     1
102
RTVSPropertyOp27
 70
     1
102
RTVSPropertyOp28
 70
     1
102
RTVSPropertyOp29
 70
     1
102
RTVSPropertyOp30
 70
     1
102
RTVSPropertyOp31
 70
     1
102
RTVSPropertyOp32
 70
     1
  0
XRECORD
  5
47A
102
{ACAD_REACTORS
330
479
102
}
330
479
100
AcDbXrecord
280
     1
102
RTVSPropertyOp0
 70
     1
102
RTVSPropertyOp1
 70
     1
102
RTVSPropertyOp2
 70
     1
102
RTVSPropertyOp3
 70
     1
102
RTVSPropertyOp4
 70
     1
102
RTVSPropertyOp5
 70
     1
102
RTVSPropertyOp6
 70
     1
102
RTVSPropertyOp7
 70
     1
102
RTVSPropertyOp8
 70
     1
102
RTVSPropertyOp9
 70
     1
102
RTVSPropertyOp10
 70
     1
102
RTVSPropertyOp11
 70
     1
102
RTVSPropertyOp12
 70
     1
102
RTVSPropertyOp13
 70
     1
102
RTVSPropertyOp14
 70
     1
102
RTVSPropertyOp15
 70
     1
102
RTVSPropertyOp16
 70
     1
102
RTVSPropertyOp17
 70
     1
102
RTVSPropertyOp18
 70
     1
102
RTVSPropertyOp19
 70
     1
102
RTVSPropertyOp20
 70
     1
102
RTVSPropertyOp21
 70
     1
102
RTVSPropertyOp22
 70
     1
102
RTVSPropertyOp23
 70
     1
102
RTVSPropertyOp24
 70
     1
102
RTVSPropertyOp25
 70
     1
102
RTVSPropertyOp26
 70
     1
102
RTVSPropertyOp27
 70
     1
102
RTVSPropertyOp28
 70
     1
102
RTVSPropertyOp29
 70
     1
102
RTVSPropertyOp30
 70
     1
102
RTVSPropertyOp31
 70
     1
102
RTVSPropertyOp32
 70
     1
  0
XRECORD
  5
470
102
{ACAD_REACTORS
330
46F
102
}
330
46F
100
AcDbXrecord
280
     1
102
RTVSPropertyOp0
 70
     1
102
RTVSPropertyOp1
 70
     1
102
RTVSPropertyOp2
 70
     1
102
RTVSPropertyOp3
 70
     1
102
RTVSPropertyOp4
 70
     1
102
RTVSPropertyOp5
 70
     1
102
RTVSPropertyOp6
 70
     1
102
RTVSPropertyOp7
 70
     1
102
RTVSPropertyOp8
 70
     1
102
RTVSPropertyOp9
 70
     1
102
RTVSPropertyOp10
 70
     1
102
RTVSPropertyOp11
 70
     1
102
RTVSPropertyOp12
 70
     1
102
RTVSPropertyOp13
 70
     1
102
RTVSPropertyOp14
 70
     1
102
RTVSPropertyOp15
 70
     1
102
RTVSPropertyOp16
 70
     1
102
RTVSPropertyOp17
 70
     1
102
RTVSPropertyOp18
 70
     1
102
RTVSPropertyOp19
 70
     1
102
RTVSPropertyOp20
 70
     1
102
RTVSPropertyOp21
 70
     1
102
RTVSPropertyOp22
 70
     1
102
RTVSPropertyOp23
 70
     1
102
RTVSPropertyOp24
 70
     1
102
RTVSPropertyOp25
 70
     1
102
RTVSPropertyOp26
 70
     1
102
RTVSPropertyOp27
 70
     1
102
RTVSPropertyOp28
 70
     1
102
RTVSPropertyOp29
 70
     1
102
RTVSPropertyOp30
 70
     1
102
RTVSPropertyOp31
 70
     1
102
RTVSPropertyOp32
 70
     1
  0
XRECORD
  5
478
102
{ACAD_REACTORS
330
477
102
}
330
477
100
AcDbXrecord
280
     1
102
RTVSPropertyOp0
 70
     1
102
RTVSPropertyOp1
 70
     1
102
RTVSPropertyOp2
 70
     1
102
RTVSPropertyOp3
 70
     1
102
RTVSPropertyOp4
 70
     1
102
RTVSPropertyOp5
 70
     1
102
RTVSPropertyOp6
 70
     1
102
RTVSPropertyOp7
 70
     1
102
RTVSPropertyOp8
 70
     1
102
RTVSPropertyOp9
 70
     1
102
RTVSPropertyOp10
 70
     1
102
RTVSPropertyOp11
 70
     1
102
RTVSPropertyOp12
 70
     1
102
RTVSPropertyOp13
 70
     1
102
RTVSPropertyOp14
 70
     1
102
RTVSPropertyOp15
 70
     1
102
RTVSPropertyOp16
 70
     1
102
RTVSPropertyOp17
 70
     1
102
RTVSPropertyOp18
 70
     1
102
RTVSPropertyOp19
 70
     1
102
RTVSPropertyOp20
 70
     1
102
RTVSPropertyOp21
 70
     1
102
RTVSPropertyOp22
 70
     1
102
RTVSPropertyOp23
 70
     1
102
RTVSPropertyOp24
 70
     1
102
RTVSPropertyOp25
 70
     1
102
RTVSPropertyOp26
 70
     1
102
RTVSPropertyOp27
 70
     1
102
RTVSPropertyOp28
 70
     1
102
RTVSPropertyOp29
 70
     1
102
RTVSPropertyOp30
 70
     1
102
RTVSPropertyOp31
 70
     1
102
RTVSPropertyOp32
 70
     1
  0
ENDSEC
  0
EOF
