  0
SECTION
  2
HEADER
  9
$ACADVER
  1
AC1021
  9
$ACADMAINTVER
 70
    25
  9
$DWGCODEPAGE
  3
ANSI_932
  9
$INSBASE
 10
0.0
 20
0.0
 30
0.0
  9
$EXTMIN
 10
14.82109837502955
 20
35.39657853810264
 30
0.0
  9
$EXTMAX
 10
1035.675253121622
 20
925.8506070777282
 30
0.0
  9
$LIMMIN
 10
0.0
 20
0.0
  9
$LIMMAX
 10
1189.0
 20
841.0
  9
$ORTHOMODE
 70
     0
  9
$REGENMODE
 70
     1
  9
$FILLMODE
 70
     1
  9
$QTEXTMODE
 70
     0
  9
$MIRRTEXT
 70
     1
  9
$LTSCALE
 40
0.25
  9
$ATTMODE
 70
     1
  9
$TEXTSIZE
 40
5.0
  9
$TRACEWID
 40
0.05
  9
$TEXTSTYLE
  7
Standard
  9
$CLAYER
  8
0
  9
$CELTYPE
  6
ByLayer
  9
$CECOLOR
 62
   256
  9
$CELTSCALE
 40
1.0
  9
$DISPSILH
 70
     0
  9
$DIMSCALE
 40
1.0
  9
$DIMASZ
 40
2.0
  9
$DIMEXO
 40
2.0
  9
$DIMDLI
 40
10.0
  9
$DIMRND
 40
0.0
  9
$DIMDLE
 40
0.0
  9
$DIMEXE
 40
1.5
  9
$DIMTP
 40
0.0
  9
$DIMTM
 40
0.0
  9
$DIMTXT
 40
4.0
  9
$DIMCEN
 40
0.09
  9
$DIMTSZ
 40
0.0
  9
$DIMTOL
 70
     0
  9
$DIMLIM
 70
     0
  9
$DIMTIH
 70
     0
  9
$DIMTOH
 70
     0
  9
$DIMSE1
 70
     0
  9
$DIMSE2
 70
     0
  9
$DIMTAD
 70
     3
  9
$DIMZIN
 70
     8
  9
$DIMBLK
  1

  9
$DIMASO
 70
     1
  9
$DIMSHO
 70
     1
  9
$DIMPOST
  1

  9
$DIMAPOST
  1

  9
$DIMALT
 70
     0
  9
$DIMALTD
 70
     2
  9
$DIMALTF
 40
25.4
  9
$DIMLFAC
 40
1.0
  9
$DIMTOFL
 70
     1
  9
$DIMTVP
 40
0.7
  9
$DIMTIX
 70
     0
  9
$DIMSOXD
 70
     0
  9
$DIMSAH
 70
     0
  9
$DIMBLK1
  1

  9
$DIMBLK2
  1

  9
$DIMSTYLE
  2
Standard
  9
$DIMCLRD
 70
     0
  9
$DIMCLRE
 70
     0
  9
$DIMCLRT
 70
     0
  9
$DIMTFAC
 40
0.5
  9
$DIMGAP
 40
0.09
  9
$DIMJUST
 70
     0
  9
$DIMSD1
 70
     0
  9
$DIMSD2
 70
     0
  9
$DIMTOLJ
 70
     1
  9
$DIMTZIN
 70
     8
  9
$DIMALTZ
 70
     0
  9
$DIMALTTZ
 70
     0
  9
$DIMUPT
 70
     1
  9
$DIMDEC
 70
     2
  9
$DIMTDEC
 70
     4
  9
$DIMALTU
 70
     2
  9
$DIMALTTD
 70
     2
  9
$DIMTXSTY
  7
Standard
  9
$DIMAUNIT
 70
     0
  9
$DIMADEC
 70
     0
  9
$DIMALTRND
 40
0.0
  9
$DIMAZIN
 70
     0
  9
$DIMDSEP
 70
    46
  9
$DIMATFIT
 70
     2
  9
$DIMFRAC
 70
     0
  9
$DIMLDRBLK
  1

  9
$DIMLUNIT
 70
     2
  9
$DIMLWD
 70
    -2
  9
$DIMLWE
 70
    -2
  9
$DIMTMOVE
 70
     2
  9
$DIMFXL
 40
1.0
  9
$DIMFXLON
 70
     0
  9
$DIMJOGANG
 40
0.7853981633974483
  9
$DIMTFILL
 70
     0
  9
$DIMTFILLCLR
 70
     0
  9
$DIMARCSYM
 70
     0
  9
$DIMLTYPE
  6

  9
$DIMLTEX1
  6

  9
$DIMLTEX2
  6

  9
$LUNITS
 70
     2
  9
$LUPREC
 70
     4
  9
$SKETCHINC
 40
0.1
  9
$FILLETRAD
 40
0.5
  9
$AUNITS
 70
     0
  9
$AUPREC
 70
     0
  9
$MENU
  1
.
  9
$ELEVATION
 40
0.0
  9
$PELEVATION
 40
0.0
  9
$THICKNESS
 40
0.0
  9
$LIMCHECK
 70
     0
  9
$CHAMFERA
 40
0.5
  9
$CHAMFERB
 40
0.5
  9
$CHAMFERC
 40
1.0
  9
$CHAMFERD
 40
0.0
  9
$SKPOLY
 70
     0
  9
$TDCREATE
 40
2456992.004293981
  9
$TDUCREATE
 40
2456991.629293981
  9
$TDUPDATE
 40
2456991.629300856
  9
$TDUUPDATE
 40
2456991.254300856
  9
$TDINDWG
 40
0.0000000116
  9
$TDUSRTIMER
 40
0.0000000116
  9
$USRTIMER
 70
     1
  9
$ANGBASE
 50
0.0
  9
$ANGDIR
 70
     0
  9
$PDMODE
 70
     0
  9
$PDSIZE
 40
0.0
  9
$PLINEWID
 40
0.0
  9
$SPLFRAME
 70
     0
  9
$SPLINETYPE
 70
     6
  9
$SPLINESEGS
 70
     8
  9
$HANDSEED
  5
4E5
  9
$SURFTAB1
 70
     6
  9
$SURFTAB2
 70
     6
  9
$SURFTYPE
 70
     6
  9
$SURFU
 70
     6
  9
$SURFV
 70
     6
  9
$UCSBASE
  2

  9
$UCSNAME
  2

  9
$UCSORG
 10
0.0
 20
0.0
 30
0.0
  9
$UCSXDIR
 10
1.0
 20
0.0
 30
0.0
  9
$UCSYDIR
 10
0.0
 20
1.0
 30
0.0
  9
$UCSORTHOREF
  2

  9
$UCSORTHOVIEW
 70
     0
  9
$UCSORGTOP
 10
0.0
 20
0.0
 30
0.0
  9
$UCSORGBOTTOM
 10
0.0
 20
0.0
 30
0.0
  9
$UCSORGLEFT
 10
0.0
 20
0.0
 30
0.0
  9
$UCSORGRIGHT
 10
0.0
 20
0.0
 30
0.0
  9
$UCSORGFRONT
 10
0.0
 20
0.0
 30
0.0
  9
$UCSORGBACK
 10
0.0
 20
0.0
 30
0.0
  9
$PUCSBASE
  2

  9
$PUCSNAME
  2

  9
$PUCSORG
 10
0.0
 20
0.0
 30
0.0
  9
$PUCSXDIR
 10
1.0
 20
0.0
 30
0.0
  9
$PUCSYDIR
 10
0.0
 20
1.0
 30
0.0
  9
$PUCSORTHOREF
  2

  9
$PUCSORTHOVIEW
 70
     0
  9
$PUCSORGTOP
 10
0.0
 20
0.0
 30
0.0
  9
$PUCSORGBOTTOM
 10
0.0
 20
0.0
 30
0.0
  9
$PUCSORGLEFT
 10
0.0
 20
0.0
 30
0.0
  9
$PUCSORGRIGHT
 10
0.0
 20
0.0
 30
0.0
  9
$PUCSORGFRONT
 10
0.0
 20
0.0
 30
0.0
  9
$PUCSORGBACK
 10
0.0
 20
0.0
 30
0.0
  9
$USERI1
 70
     0
  9
$USERI2
 70
     0
  9
$USERI3
 70
     0
  9
$USERI4
 70
     0
  9
$USERI5
 70
     0
  9
$USERR1
 40
0.0
  9
$USERR2
 40
0.0
  9
$USERR3
 40
0.0
  9
$USERR4
 40
0.0
  9
$USERR5
 40
0.0
  9
$WORLDVIEW
 70
     1
  9
$SHADEDGE
 70
     3
  9
$SHADEDIF
 70
    70
  9
$TILEMODE
 70
     1
  9
$MAXACTVP
 70
    64
  9
$PINSBASE
 10
0.0
 20
0.0
 30
0.0
  9
$PLIMCHECK
 70
     0
  9
$PEXTMIN
 10
0.0
 20
0.0
 30
0.0
  9
$PEXTMAX
 10
1189.0
 20
841.0
 30
0.0
  9
$PLIMMIN
 10
0.0
 20
0.0
  9
$PLIMMAX
 10
1189.0
 20
841.0
  9
$UNITMODE
 70
     0
  9
$VISRETAIN
 70
     1
  9
$PLINEGEN
 70
     0
  9
$PSLTSCALE
 70
     1
  9
$TREEDEPTH
 70
  3020
  9
$CMLSTYLE
  2
Standard
  9
$CMLJUST
 70
     0
  9
$CMLSCALE
 40
1.0
  9
$PROXYGRAPHICS
 70
     1
  9
$MEASUREMENT
 70
     1
  9
$CELWEIGHT
370
    -1
  9
$ENDCAPS
280
     0
  9
$JOINSTYLE
280
     0
  9
$LWDISPLAY
290
     0
  9
$INSUNITS
 70
     4
  9
$HYPERLINKBASE
  1

  9
$STYLESHEET
  1

  9
$XEDIT
290
     1
  9
$CEPSNTYPE
380
     0
  9
$PSTYLEMODE
290
     1
  9
$FINGERPRINTGUID
  2
{4E7DDFB6-0214-4492-AD4D-9BB75AEA5B2B}
  9
$VERSIONGUID
  2
{FAEB1C32-E019-11D5-929B-00C0DF256EC4}
  9
$EXTNAMES
290
     1
  9
$PSVPSCALE
 40
0.0
  9
$OLESTARTUP
290
     0
  9
$SORTENTS
280
   127
  9
$INDEXCTL
280
     0
  9
$HIDETEXT
280
     1
  9
$XCLIPFRAME
290
     0
  9
$HALOGAP
280
     0
  9
$OBSCOLOR
 70
   257
  9
$OBSLTYPE
280
     0
  9
$INTERSECTIONDISPLAY
280
     0
  9
$INTERSECTIONCOLOR
 70
   257
  9
$DIMASSOC
280
     1
  9
$PROJECTNAME
  1

  9
$CAMERADISPLAY
290
     0
  9
$LENSLENGTH
 40
50.0
  9
$CAMERAHEIGHT
 40
0.0
  9
$STEPSPERSEC
 40
2.0
  9
$STEPSIZE
 40
6.0
  9
$3DDWFPREC
 40
2.0
  9
$PSOLWIDTH
 40
0.25
  9
$PSOLHEIGHT
 40
4.0
  9
$LOFTANG1
 40
1.570796326794897
  9
$LOFTANG2
 40
1.570796326794897
  9
$LOFTMAG1
 40
0.0
  9
$LOFTMAG2
 40
0.0
  9
$LOFTPARAM
 70
     7
  9
$LOFTNORMALS
280
     1
  9
$LATITUDE
 40
37.795
  9
$LONGITUDE
 40
-122.394
  9
$NORTHDIRECTION
 40
0.0
  9
$TIMEZONE
 70
 -8000
  9
$LIGHTGLYPHDISPLAY
280
     1
  9
$TILEMODELIGHTSYNCH
280
     1
  9
$SOLIDHIST
280
     1
  9
$SHOWHIST
280
     1
  9
$DWFFRAME
280
     2
  9
$DGNFRAME
280
     2
  9
$REALWORLDSCALE
290
     1
  9
$INTERFERECOLOR
 62
   256
  9
$CSHADOW
280
     0
  9
$SHADOWPLANELOCATION
 40
0.0
  0
ENDSEC
  0
SECTION
  2
CLASSES
  0
CLASS
  1
ACDBDICTIONARYWDFLT
  2
AcDbDictionaryWithDefault
  3
ObjectDBX Classes
 90
        0
 91
        4
280
     0
281
     0
  0
CLASS
  1
VISUALSTYLE
  2
AcDbVisualStyle
  3
ObjectDBX Classes
 90
     4095
 91
        4
280
     0
281
     0
  0
CLASS
  1
MATERIAL
  2
AcDbMaterial
  3
ObjectDBX Classes
 90
     1153
 91
        4
280
     0
281
     0
  0
ENDSEC
  0
SECTION
  2
TABLES
  0
TABLE
  2
VPORT
  5
8
330
0
100
AcDbSymbolTable
 70
     1
  0
VPORT
  5
29
330
8
100
AcDbSymbolTableRecord
100
AcDbViewportTableRecord
  2
*Active
 70
     0
 10
0.0
 20
0.0
 11
1.0
 21
1.0
 12
10.42990654205607
 22
4.5
 13
0.0
 23
0.0
 14
0.5
 24
0.5
 15
0.5
 25
0.5
 16
0.0
 26
0.0
 36
1.0
 17
0.0
 27
0.0
 37
0.0
 40
9.0
 41
1.972972972850329
 42
50.0
 43
0.0
 44
0.0
 50
0.0
 51
0.0
 71
     0
 72
   100
 73
     1
 74
     3
 75
     0
 76
     0
 77
     0
 78
     0
281
     0
 65
     1
110
0.0
120
0.0
130
0.0
111
1.0
121
0.0
131
0.0
112
0.0
122
1.0
132
0.0
 79
     0
146
0.0
 60
     3
 61
     5
292
     1
282
     1
141
0.0
142
0.0
 63
   250
  0
ENDTAB
  0
TABLE
  2
LTYPE
  5
5
330
0
100
AcDbSymbolTable
 70
     9
  0
LTYPE
  5
14
330
5
100
AcDbSymbolTableRecord
100
AcDbLinetypeTableRecord
  2
ByBlock
 70
     0
  3

 72
    65
 73
     0
 40
0.0
  0
LTYPE
  5
15
330
5
100
AcDbSymbolTableRecord
100
AcDbLinetypeTableRecord
  2
ByLayer
 70
     0
  3

 72
    65
 73
     0
 40
0.0
  0
LTYPE
  5
16
330
5
100
AcDbSymbolTableRecord
100
AcDbLinetypeTableRecord
  2
Continuous
 70
     0
  3
Solid line
 72
    65
 73
     0
 40
0.0
  0
LTYPE
  5
8E
330
5
100
AcDbSymbolTableRecord
100
AcDbLinetypeTableRecord
  2
DOT
 70
     0
  3
DOT
 72
    65
 73
     2
 40
4.0
 49
6.0
 74
     0
 49
-2.0
 74
     0
  0
LTYPE
  5
8F
330
5
100
AcDbSymbolTableRecord
100
AcDbLinetypeTableRecord
  2
HIDDEN
 70
     0
  3
HIDDEN
 72
    65
 73
     2
 40
4.2
 49
8.4
 74
     0
 49
-4.2
 74
     0
  0
LTYPE
  5
90
330
5
100
AcDbSymbolTableRecord
100
AcDbLinetypeTableRecord
  2
DASHDOT
 70
     0
  3
DASHDOT
 72
    65
 73
     4
 40
14.5
 49
30.0
 74
     0
 49
-9.0
 74
     0
 49
2.5
 74
     0
 49
-9.0
 74
     0
  0
LTYPE
  5
91
330
5
100
AcDbSymbolTableRecord
100
AcDbLinetypeTableRecord
  2
PHANTOM
 70
     0
  3
PHANTOM
 72
    65
 73
     6
 40
12.0
 49
30.0
 74
     0
 49
-9.0
 74
     0
 49
2.5
 74
     0
 49
-5.0
 74
     0
 49
2.5
 74
     0
 49
-9.0
 74
     0
  0
LTYPE
  5
92
330
5
100
AcDbSymbolTableRecord
100
AcDbLinetypeTableRecord
  2
ACAD_ISO14W100
 70
     0
  3
ACAD_ISO14W100
 72
    65
 73
     8
 40
1.5
 49
12.0
 74
     0
 49
-3.0
 74
     0
 49
0.5
 74
     0
 49
-3.0
 74
     0
 49
0.5
 74
     0
 49
-3.0
 74
     0
 49
0.5
 74
     0
 49
-3.0
 74
     0
  0
LTYPE
  5
93
330
5
100
AcDbSymbolTableRecord
100
AcDbLinetypeTableRecord
  2
ACAD_ISO06W100
 70
     0
  3
ACAD_ISO06W100
 72
    65
 73
     8
 40
13.5
 49
24.0
 74
     0
 49
-3.0
 74
     0
 49
0.5
 74
     0
 49
-3.0
 74
     0
 49
0.5
 74
     0
 49
-3.0
 74
     0
 49
0.5
 74
     0
 49
-3.0
 74
     0
  0
LTYPE
  5
94
330
5
100
AcDbSymbolTableRecord
100
AcDbLinetypeTableRecord
  2
ACAD_ISO11W100
 70
     0
  3
ACAD_ISO11W100
 72
    65
 73
     6
 40
15.5
 49
12.0
 74
     0
 49
-3.0
 74
     0
 49
12.0
 74
     0
 49
-3.0
 74
     0
 49
0.5
 74
     0
 49
-3.0
 74
     0
  0
LTYPE
  5
95
330
5
100
AcDbSymbolTableRecord
100
AcDbLinetypeTableRecord
  2
ACAD_ISO13W100
 70
     0
  3
ACAD_ISO13W100
 72
    65
 73
     8
 40
13.0
 49
12.0
 74
     0
 49
-3.0
 74
     0
 49
12.0
 74
     0
 49
-3.0
 74
     0
 49
0.5
 74
     0
 49
-3.0
 74
     0
 49
0.5
 74
     0
 49
-3.0
 74
     0
  0
ENDTAB
  0
TABLE
  2
LAYER
  5
2
330
0
100
AcDbSymbolTable
 70
    22
  0
LAYER
  5
10
330
2
100
AcDbSymbolTableRecord
100
AcDbLayerTableRecord
  2
0
 70
     0
 62
     7
  6
Continuous
370
    -3
390
F
347
3E
  0
LAYER
  5
96
330
2
100
AcDbSymbolTableRecord
100
AcDbLayerTableRecord
  2
1
 70
     0
 62
     7
  6
Continuous
370
     9
390
F
347
3E
  0
LAYER
  5
97
330
2
100
AcDbSymbolTableRecord
100
AcDbLayerTableRecord
  2
2
 70
     0
 62
   134
  6
Continuous
370
     9
390
F
347
3E
  0
LAYER
  5
98
330
2
100
AcDbSymbolTableRecord
100
AcDbLayerTableRecord
  2
3
 70
     0
 62
   214
  6
Continuous
370
     9
390
F
347
3E
  0
LAYER
  5
99
330
2
100
AcDbSymbolTableRecord
100
AcDbLayerTableRecord
  2
4
 70
     0
 62
    54
  6
Continuous
370
     9
390
F
347
3E
  0
LAYER
  5
9A
330
2
100
AcDbSymbolTableRecord
100
AcDbLayerTableRecord
  2
5
 70
     0
 62
    94
  6
Continuous
370
     9
390
F
347
3E
  0
LAYER
  5
9B
330
2
100
AcDbSymbolTableRecord
100
AcDbLayerTableRecord
  2
6
 70
     0
 62
    14
  6
Continuous
370
     9
390
F
347
3E
  0
LAYER
  5
9C
330
2
100
AcDbSymbolTableRecord
100
AcDbLayerTableRecord
  2
7
 70
     0
 62
     4
  6
Continuous
370
     9
390
F
347
3E
  0
LAYER
  5
9D
330
2
100
AcDbSymbolTableRecord
100
AcDbLayerTableRecord
  2
8
 70
     0
 62
     6
  6
Continuous
370
     9
390
F
347
3E
  0
LAYER
  5
9E
330
2
100
AcDbSymbolTableRecord
100
AcDbLayerTableRecord
  2
9
 70
     0
 62
     2
  6
Continuous
370
     9
390
F
347
3E
  0
LAYER
  5
9F
330
2
100
AcDbSymbolTableRecord
100
AcDbLayerTableRecord
  2
10
 70
     0
 62
     3
  6
Continuous
370
     9
390
F
347
3E
  0
LAYER
  5
A0
330
2
100
AcDbSymbolTableRecord
100
AcDbLayerTableRecord
  2
11
 70
     0
 62
   251
  6
Continuous
370
     9
390
F
347
3E
  0
LAYER
  5
A1
330
2
100
AcDbSymbolTableRecord
100
AcDbLayerTableRecord
  2
12
 70
     0
 62
   136
  6
Continuous
370
     9
390
F
347
3E
  0
LAYER
  5
A2
330
2
100
AcDbSymbolTableRecord
100
AcDbLayerTableRecord
  2
13
 70
     0
 62
   216
  6
Continuous
370
     9
390
F
347
3E
  0
LAYER
  5
A3
330
2
100
AcDbSymbolTableRecord
100
AcDbLayerTableRecord
  2
14
 70
     0
 62
    56
  6
Continuous
370
     9
390
F
347
3E
  0
LAYER
  5
A4
330
2
100
AcDbSymbolTableRecord
100
AcDbLayerTableRecord
  2
15
 70
     0
 62
    96
  6
Continuous
370
     9
390
F
347
3E
  0
LAYER
  5
A5
330
2
100
AcDbSymbolTableRecord
100
AcDbLayerTableRecord
  2
16
 70
     0
 62
    16
  6
Continuous
370
     9
390
F
347
3E
  0
LAYER
  5
A6
330
2
100
AcDbSymbolTableRecord
100
AcDbLayerTableRecord
  2
17
 70
     0
 62
   132
  6
Continuous
370
     9
390
F
347
3E
  0
LAYER
  5
A7
330
2
100
AcDbSymbolTableRecord
100
AcDbLayerTableRecord
  2
18
 70
     0
 62
   212
  6
Continuous
370
     9
390
F
347
3E
  0
LAYER
  5
A8
330
2
100
AcDbSymbolTableRecord
100
AcDbLayerTableRecord
  2
19
 70
     0
 62
    52
  6
Continuous
370
     9
390
F
347
3E
  0
LAYER
  5
A9
330
2
100
AcDbSymbolTableRecord
100
AcDbLayerTableRecord
  2
20
 70
     0
 62
   250
  6
Continuous
370
     9
390
F
347
3E
  0
LAYER
  5
AA
330
2
100
AcDbSymbolTableRecord
100
AcDbLayerTableRecord
  2
128
 70
     0
 62
     7
  6
Continuous
370
     9
390
F
347
3E
  0
ENDTAB
  0
TABLE
  2
STYLE
  5
3
330
0
100
AcDbSymbolTable
 70
     2
  0
STYLE
  5
11
330
3
100
AcDbSymbolTableRecord
100
AcDbTextStyleTableRecord
  2
Standard
 70
     0
 40
0.0
 41
1.0
 50
0.0
 71
     0
 42
5.0
  3
txt
  4
bigfont
  0
STYLE
  5
41
330
3
100
AcDbSymbolTableRecord
100
AcDbTextStyleTableRecord
  2
T_STANDARD
 70
     4
 40
10.0
 41
1.0
 50
0.0
 71
     0
 42
10.0
  3
txt
  4
bigfont
  0
ENDTAB
  0
TABLE
  2
VIEW
  5
6
330
0
100
AcDbSymbolTable
 70
     0
  0
ENDTAB
  0
TABLE
  2
UCS
  5
7
330
0
100
AcDbSymbolTable
 70
     0
  0
ENDTAB
  0
TABLE
  2
APPID
  5
9
330
0
100
AcDbSymbolTable
 70
     2
  0
APPID
  5
12
330
9
100
AcDbSymbolTableRecord
100
AcDbRegAppTableRecord
  2
ACAD
 70
     0
  0
APPID
  5
40
330
9
100
AcDbSymbolTableRecord
100
AcDbRegAppTableRecord
  2
ODA
 70
     0
  0
ENDTAB
  0
TABLE
  2
DIMSTYLE
  5
A
330
0
100
AcDbSymbolTable
 70
     1
100
AcDbDimStyleTable
  0
DIMSTYLE
105
27
330
A
100
AcDbSymbolTableRecord
100
AcDbDimStyleTableRecord
  2
Standard
 70
     0
178
     0
340
11
  0
ENDTAB
  0
TABLE
  2
BLOCK_RECORD
  5
1
330
0
100
AcDbSymbolTable
 70
    16
  0
BLOCK_RECORD
  5
1F
330
1
100
AcDbSymbolTableRecord
100
AcDbBlockTableRecord
  2
*Model_Space
340
22
 70
     0
280
     1
281
     0
  0
BLOCK_RECORD
  5
1B
330
1
100
AcDbSymbolTableRecord
100
AcDbBlockTableRecord
  2
*Paper_Space
340
1E
 70
     0
280
     1
281
     0
  0
BLOCK_RECORD
  5
23
330
1
100
AcDbSymbolTableRecord
100
AcDbBlockTableRecord
  2
*Paper_Space0
340
26
 70
     0
280
     1
281
     0
  0
BLOCK_RECORD
  5
42
330
1
100
AcDbSymbolTableRecord
100
AcDbBlockTableRecord
  2
_ORIGIN
340
0
 70
     0
280
     1
281
     0
  0
BLOCK_RECORD
  5
47
330
1
100
AcDbSymbolTableRecord
100
AcDbBlockTableRecord
  2
_DOTBLANK
340
0
 70
     0
280
     1
281
     0
  0
BLOCK_RECORD
  5
4C
330
1
100
AcDbSymbolTableRecord
100
AcDbBlockTableRecord
  2
_DOT
340
0
 70
     0
280
     1
281
     0
  0
BLOCK_RECORD
  5
51
330
1
100
AcDbSymbolTableRecord
100
AcDbBlockTableRecord
  2
_OPEN
340
0
 70
     0
280
     1
281
     0
  0
BLOCK_RECORD
  5
57
330
1
100
AcDbSymbolTableRecord
100
AcDbBlockTableRecord
  2
_CLOSED
340
0
 70
     0
280
     1
281
     0
  0
BLOCK_RECORD
  5
5E
330
1
100
AcDbSymbolTableRecord
100
AcDbBlockTableRecord
  2
_CLOSEDBLANK
340
0
 70
     0
280
     1
281
     0
  0
BLOCK_RECORD
  5
64
330
1
100
AcDbSymbolTableRecord
100
AcDbBlockTableRecord
  2
_ARROWFILLED
340
0
 70
     0
280
     1
281
     0
  0
BLOCK_RECORD
  5
68
330
1
100
AcDbSymbolTableRecord
100
AcDbBlockTableRecord
  2
_BOXBLANK
340
0
 70
     0
280
     1
281
     0
  0
BLOCK_RECORD
  5
70
330
1
100
AcDbSymbolTableRecord
100
AcDbBlockTableRecord
  2
_BOXFILLED
340
0
 70
     0
280
     1
281
     0
  0
BLOCK_RECORD
  5
75
330
1
100
AcDbSymbolTableRecord
100
AcDbBlockTableRecord
  2
_INTEGRAL
340
0
 70
     0
280
     1
281
     0
  0
BLOCK_RECORD
  5
7A
330
1
100
AcDbSymbolTableRecord
100
AcDbBlockTableRecord
  2
_OBLIQUE
340
0
 70
     0
280
     1
281
     0
  0
BLOCK_RECORD
  5
7E
330
1
100
AcDbSymbolTableRecord
100
AcDbBlockTableRecord
  2
_NONE
340
0
 70
     0
280
     1
281
     0
  0
BLOCK_RECORD
  5
81
330
1
100
AcDbSymbolTableRecord
100
AcDbBlockTableRecord
  2
MARK_OPEN
340
0
 70
     0
280
     1
281
     0
  0
BLOCK_RECORD
  5
86
330
1
100
AcDbSymbolTableRecord
100
AcDbBlockTableRecord
  2
MARK_ORIGIN
340
0
 70
     0
280
     1
281
     0
  0
BLOCK_RECORD
  5
8A
330
1
100
AcDbSymbolTableRecord
100
AcDbBlockTableRecord
  2
MARK_DOT
340
0
 70
     0
280
     1
281
     0
  0
ENDTAB
  0
ENDSEC
  0
SECTION
  2
BLOCKS
  0
BLOCK
  5
20
330
1F
100
AcDbEntity
  8
0
100
AcDbBlockBegin
  2
*Model_Space
 70
     0
 10
0.0
 20
0.0
 30
0.0
  3
*Model_Space
  1

  0
ENDBLK
  5
21
330
1F
100
AcDbEntity
  8
0
100
AcDbBlockEnd
  0
BLOCK
  5
1C
330
1B
100
AcDbEntity
 67
     1
  8
0
100
AcDbBlockBegin
  2
*Paper_Space
 70
     0
 10
0.0
 20
0.0
 30
0.0
  3
*Paper_Space
  1

  0
ENDBLK
  5
1D
330
1B
100
AcDbEntity
 67
     1
  8
0
100
AcDbBlockEnd
  0
BLOCK
  5
24
330
23
100
AcDbEntity
  8
0
100
AcDbBlockBegin
  2
*Paper_Space0
 70
     0
 10
0.0
 20
0.0
 30
0.0
  3
*Paper_Space0
  1

  0
ENDBLK
  5
25
330
23
100
AcDbEntity
  8
0
100
AcDbBlockEnd
  0
BLOCK
  5
45
330
42
100
AcDbEntity
  8
0
100
AcDbBlockBegin
  2
_ORIGIN
 70
     0
 10
0.0
 20
0.0
 30
0.0
  3
_ORIGIN
  1

  0
CIRCLE
  5
43
330
42
100
AcDbEntity
  8
0
100
AcDbCircle
 10
0.0
 20
0.0
 30
0.0
 40
0.5
  0
LINE
  5
44
330
42
100
AcDbEntity
  8
0
100
AcDbLine
 10
0.0
 20
0.0
 30
0.0
 11
-1.0
 21
0.0
 31
0.0
  0
ENDBLK
  5
46
330
42
100
AcDbEntity
  8
0
100
AcDbBlockEnd
  0
BLOCK
  5
4A
330
47
100
AcDbEntity
  8
0
100
AcDbBlockBegin
  2
_DOTBLANK
 70
     0
 10
0.0
 20
0.0
 30
0.0
  3
_DOTBLANK
  1

  0
CIRCLE
  5
48
330
47
100
AcDbEntity
  8
0
100
AcDbCircle
 10
0.0
 20
0.0
 30
0.0
 40
0.5
  0
LINE
  5
49
330
47
100
AcDbEntity
  8
0
100
AcDbLine
 10
-0.5
 20
0.0
 30
0.0
 11
-1.0
 21
0.0
 31
0.0
  0
ENDBLK
  5
4B
330
47
100
AcDbEntity
  8
0
100
AcDbBlockEnd
  0
BLOCK
  5
4F
330
4C
100
AcDbEntity
  8
0
100
AcDbBlockBegin
  2
_DOT
 70
     0
 10
0.0
 20
0.0
 30
0.0
  3
_DOT
  1

  0
LWPOLYLINE
  5
4D
330
4C
100
AcDbEntity
  8
0
100
AcDbPolyline
 90
        2
 70
     1
 43
0.5
 10
-0.25
 20
0.0
 42
1.0
 10
0.25
 20
0.0
 42
1.0
  0
LINE
  5
4E
330
4C
100
AcDbEntity
  8
0
100
AcDbLine
 10
-0.5
 20
0.0
 30
0.0
 11
-1.0
 21
0.0
 31
0.0
  0
ENDBLK
  5
50
330
4C
100
AcDbEntity
  8
0
100
AcDbBlockEnd
  0
BLOCK
  5
55
330
51
100
AcDbEntity
  8
0
100
AcDbBlockBegin
  2
_OPEN
 70
     0
 10
0.0
 20
0.0
 30
0.0
  3
_OPEN
  1

  0
LINE
  5
52
330
51
100
AcDbEntity
  8
0
100
AcDbLine
 10
0.0
 20
0.0
 30
0.0
 11
-1.0
 21
0.1666666666666667
 31
0.0
  0
LINE
  5
53
330
51
100
AcDbEntity
  8
0
100
AcDbLine
 10
0.0
 20
0.0
 30
0.0
 11
-1.0
 21
-0.1666666666666667
 31
0.0
  0
LINE
  5
54
330
51
100
AcDbEntity
  8
0
100
AcDbLine
 10
0.0
 20
0.0
 30
0.0
 11
-1.0
 21
0.0
 31
0.0
  0
ENDBLK
  5
56
330
51
100
AcDbEntity
  8
0
100
AcDbBlockEnd
  0
BLOCK
  5
5C
330
57
100
AcDbEntity
  8
0
100
AcDbBlockBegin
  2
_CLOSED
 70
     0
 10
0.0
 20
0.0
 30
0.0
  3
_CLOSED
  1

  0
LINE
  5
58
330
57
100
AcDbEntity
  8
0
100
AcDbLine
 10
0.0
 20
0.0
 30
0.0
 11
-1.0
 21
0.1666666666666667
 31
0.0
  0
LINE
  5
59
330
57
100
AcDbEntity
  8
0
100
AcDbLine
 10
0.0
 20
0.0
 30
0.0
 11
-1.0
 21
-0.1666666666666667
 31
0.0
  0
LINE
  5
5A
330
57
100
AcDbEntity
  8
0
100
AcDbLine
 10
-1.0
 20
0.1666666666666667
 30
0.0
 11
-1.0
 21
-0.1666666666666667
 31
0.0
  0
LINE
  5
5B
330
57
100
AcDbEntity
  8
0
100
AcDbLine
 10
0.0
 20
0.0
 30
0.0
 11
-1.0
 21
0.0
 31
0.0
  0
ENDBLK
  5
5D
330
57
100
AcDbEntity
  8
0
100
AcDbBlockEnd
  0
BLOCK
  5
62
330
5E
100
AcDbEntity
  8
0
100
AcDbBlockBegin
  2
_CLOSEDBLANK
 70
     0
 10
0.0
 20
0.0
 30
0.0
  3
_CLOSEDBLANK
  1

  0
LINE
  5
5F
330
5E
100
AcDbEntity
  8
0
100
AcDbLine
 10
0.0
 20
0.0
 30
0.0
 11
-1.0
 21
0.1666666666666667
 31
0.0
  0
LINE
  5
60
330
5E
100
AcDbEntity
  8
0
100
AcDbLine
 10
0.0
 20
0.0
 30
0.0
 11
-1.0
 21
-0.1666666666666667
 31
0.0
  0
LINE
  5
61
330
5E
100
AcDbEntity
  8
0
100
AcDbLine
 10
-1.0
 20
0.1666666666666667
 30
0.0
 11
-1.0
 21
-0.1666666666666667
 31
0.0
  0
ENDBLK
  5
63
330
5E
100
AcDbEntity
  8
0
100
AcDbBlockEnd
  0
BLOCK
  5
66
330
64
100
AcDbEntity
  8
0
100
AcDbBlockBegin
  2
_ARROWFILLED
 70
     0
 10
0.0
 20
0.0
 30
0.0
  3
_ARROWFILLED
  1

  0
SOLID
  5
65
330
64
100
AcDbEntity
  8
0
100
AcDbTrace
 10
0.0
 20
0.0
 30
0.0
 11
-1.0
 21
-0.1666666666666667
 31
0.0
 12
-1.0
 22
0.1666666666666667
 32
0.0
 13
0.0
 23
0.0
 33
0.0
  0
ENDBLK
  5
67
330
64
100
AcDbEntity
  8
0
100
AcDbBlockEnd
  0
BLOCK
  5
6E
330
68
100
AcDbEntity
  8
0
100
AcDbBlockBegin
  2
_BOXBLANK
 70
     0
 10
0.0
 20
0.0
 30
0.0
  3
_BOXBLANK
  1

  0
LINE
  5
69
330
68
100
AcDbEntity
  8
0
100
AcDbLine
 10
-0.5
 20
-0.5
 30
0.0
 11
0.5
 21
-0.5
 31
0.0
  0
LINE
  5
6A
330
68
100
AcDbEntity
  8
0
100
AcDbLine
 10
0.5
 20
-0.5
 30
0.0
 11
0.5
 21
0.5
 31
0.0
  0
LINE
  5
6B
330
68
100
AcDbEntity
  8
0
100
AcDbLine
 10
0.5
 20
0.5
 30
0.0
 11
-0.5
 21
0.5
 31
0.0
  0
LINE
  5
6C
330
68
100
AcDbEntity
  8
0
100
AcDbLine
 10
-0.5
 20
0.5
 30
0.0
 11
-0.5
 21
-0.5
 31
0.0
  0
LINE
  5
6D
330
68
100
AcDbEntity
  8
0
100
AcDbLine
 10
-0.5
 20
0.0
 30
0.0
 11
-1.0
 21
0.0
 31
0.0
  0
ENDBLK
  5
6F
330
68
100
AcDbEntity
  8
0
100
AcDbBlockEnd
  0
BLOCK
  5
73
330
70
100
AcDbEntity
  8
0
100
AcDbBlockBegin
  2
_BOXFILLED
 70
     0
 10
0.0
 20
0.0
 30
0.0
  3
_BOXFILLED
  1

  0
SOLID
  5
71
330
70
100
AcDbEntity
  8
0
100
AcDbTrace
 10
-0.5
 20
0.5
 30
0.0
 11
0.5
 21
0.5
 31
0.0
 12
-0.5
 22
-0.5
 32
0.0
 13
0.5
 23
-0.5
 33
0.0
  0
LINE
  5
72
330
70
100
AcDbEntity
  8
0
100
AcDbLine
 10
-0.5
 20
0.0
 30
0.0
 11
-1.0
 21
0.0
 31
0.0
  0
ENDBLK
  5
74
330
70
100
AcDbEntity
  8
0
100
AcDbBlockEnd
  0
BLOCK
  5
78
330
75
100
AcDbEntity
  8
0
100
AcDbBlockBegin
  2
_INTEGRAL
 70
     0
 10
0.0
 20
0.0
 30
0.0
  3
_INTEGRAL
  1

  0
ARC
  5
76
330
75
100
AcDbEntity
  8
0
100
AcDbCircle
 10
0.444888
 20
-0.0913346
 30
0.0
 40
0.4541666
100
AcDbArc
 50
101.9999999999999
 51
167.9999999999998
  0
ARC
  5
77
330
75
100
AcDbEntity
  8
0
100
AcDbCircle
 10
-0.444888
 20
0.0913346
 30
0.0
 40
0.4541666
100
AcDbArc
 50
281.9999999999997
 51
347.9999999999997
  0
ENDBLK
  5
79
330
75
100
AcDbEntity
  8
0
100
AcDbBlockEnd
  0
BLOCK
  5
7C
330
7A
100
AcDbEntity
  8
0
100
AcDbBlockBegin
  2
_OBLIQUE
 70
     0
 10
0.0
 20
0.0
 30
0.0
  3
_OBLIQUE
  1

  0
LINE
  5
7B
330
7A
100
AcDbEntity
  8
0
100
AcDbLine
 10
-0.5
 20
-0.5
 30
0.0
 11
0.5
 21
0.5
 31
0.0
  0
ENDBLK
  5
7D
330
7A
100
AcDbEntity
  8
0
100
AcDbBlockEnd
  0
BLOCK
  5
7F
330
7E
100
AcDbEntity
  8
0
100
AcDbBlockBegin
  2
_NONE
 70
     0
 10
0.0
 20
0.0
 30
0.0
  3
_NONE
  1

  0
ENDBLK
  5
80
330
7E
100
AcDbEntity
  8
0
100
AcDbBlockEnd
  0
BLOCK
  5
84
330
81
100
AcDbEntity
  8
0
100
AcDbBlockBegin
  2
MARK_OPEN
 70
     0
 10
0.0
 20
0.0
 30
0.0
  3
MARK_OPEN
  1

  0
LINE
  5
82
330
81
100
AcDbEntity
  8
0
100
AcDbLine
 10
0.0
 20
0.0
 30
0.0
 11
-1.0
 21
0.1666666666666667
 31
0.0
  0
LINE
  5
83
330
81
100
AcDbEntity
  8
0
100
AcDbLine
 10
0.0
 20
0.0
 30
0.0
 11
-1.0
 21
-0.1666666666666667
 31
0.0
  0
ENDBLK
  5
85
330
81
100
AcDbEntity
  8
0
100
AcDbBlockEnd
  0
BLOCK
  5
88
330
86
100
AcDbEntity
  8
0
100
AcDbBlockBegin
  2
MARK_ORIGIN
 70
     0
 10
0.0
 20
0.0
 30
0.0
  3
MARK_ORIGIN
  1

  0
CIRCLE
  5
87
330
86
100
AcDbEntity
  8
0
100
AcDbCircle
 10
0.0
 20
0.0
 30
0.0
 40
0.5
  0
ENDBLK
  5
89
330
86
100
AcDbEntity
  8
0
100
AcDbBlockEnd
  0
BLOCK
  5
8C
330
8A
100
AcDbEntity
  8
0
100
AcDbBlockBegin
  2
MARK_DOT
 70
     0
 10
0.0
 20
0.0
 30
0.0
  3
MARK_DOT
  1

  0
LWPOLYLINE
  5
8B
330
8A
100
AcDbEntity
  8
0
100
AcDbPolyline
 90
        2
 70
     1
 43
0.5
 10
-0.25
 20
0.0
 42
1.0
 10
0.25
 20
0.0
 42
1.0
  0
ENDBLK
  5
8D
330
8A
100
AcDbEntity
  8
0
100
AcDbBlockEnd
  0
ENDSEC
  0
SECTION
  2
ENTITIES
  0
LINE
  5
AB
330
1F
100
AcDbEntity
  8
1
  6
Continuous
 62
     7
370
     9
100
AcDbLine
 10
29.1210983750295
 20
74.88028949944447
 30
0.0
 11
30.94462311587313
 21
73.82747699944447
 31
0.0
  0
LINE
  5
AC
330
1F
100
AcDbEntity
  8
1
  6
Continuous
 62
     7
370
     9
100
AcDbLine
 10
20.35980805244897
 20
87.15687417686387
 30
0.0
 11
29.12109837502953
 21
87.43066449944452
 31
0.0
  0
LINE
  5
AD
330
1F
100
AcDbEntity
  8
1
  6
Continuous
 62
     7
370
     9
100
AcDbLine
 10
19.12109837502963
 20
85.91816449944427
 30
0.0
 11
20.35980805244908
 21
87.15687417686365
 31
0.0
  0
LINE
  5
AE
330
1F
100
AcDbEntity
  8
1
  6
Continuous
 62
     7
370
     9
100
AcDbLine
 10
20.35980805244888
 20
74.29807982202514
 30
0.0
 11
29.12109837502958
 21
74.02428949944449
 31
0.0
  0
LINE
  5
AF
330
1F
100
AcDbEntity
  8
1
  6
Continuous
 62
     7
370
     9
100
AcDbLine
 10
29.12109837502953
 20
86.5746644994446
 30
0.0
 11
30.94462311587317
 21
87.6274769994446
 31
0.0
  0
LINE
  5
B0
330
1F
100
AcDbEntity
  8
1
  6
Continuous
 62
     7
370
     9
100
AcDbLine
 10
20.35980805244893
 20
87.15687417686384
 30
0.0
 11
20.35980805244893
 21
74.29807982202514
 31
0.0
  0
LINE
  5
B1
330
1F
100
AcDbEntity
  8
1
  6
Continuous
 62
     7
370
     9
100
AcDbLine
 10
19.47619514922312
 20
86.27326127363806
 30
0.0
 11
29.12109837502948
 21
86.5746644994445
 31
0.0
  0
LINE
  5
B2
330
1F
100
AcDbEntity
  8
1
  6
Continuous
 62
     7
370
     9
100
AcDbLine
 10
19.12109837502956
 20
85.91816449944447
 30
0.0
 11
19.12109837502956
 21
75.53678949944462
 31
0.0
  0
LINE
  5
B3
330
1F
100
AcDbEntity
  8
1
  6
Continuous
 62
     7
370
     9
100
AcDbLine
 10
29.12109837502956
 20
87.43066449944449
 30
0.0
 11
29.12109837502956
 21
74.02428949944452
 31
0.0
  0
LINE
  5
B4
330
1F
100
AcDbEntity
  8
1
  6
Continuous
 62
     7
370
     9
100
AcDbLine
 10
19.47619514922302
 20
75.18169272525098
 30
0.0
 11
29.12109837502942
 21
74.88028949944452
 31
0.0
  0
LINE
  5
B5
330
1F
100
AcDbEntity
  8
1
  6
Continuous
 62
     7
370
     9
100
AcDbLine
 10
19.12109837502975
 20
75.53678949944464
 30
0.0
 11
20.3598080524492
 21
74.29807982202524
 31
0.0
  0
LINE
  5
B6
330
1F
100
AcDbEntity
  8
1
  6
Continuous
 62
     7
370
     9
100
AcDbLine
 10
29.12109837502955
 20
87.43066449944455
 30
0.0
 11
29.46198762459433
 21
87.62747699944462
 31
0.0
  0
LINE
  5
B7
330
1F
100
AcDbEntity
  8
1
  6
Continuous
 62
     7
370
     9
100
AcDbLine
 10
29.46198762459406
 20
73.8274769994445
 30
0.0
 11
218.8210983750295
 21
73.8274769994445
 31
0.0
  0
LINE
  5
B8
330
1F
100
AcDbEntity
  8
1
  6
Continuous
 62
     7
370
     9
100
AcDbLine
 10
29.46198762459417
 20
87.62747699944451
 30
0.0
 11
218.8210983750295
 21
87.62747699944451
 31
0.0
  0
LINE
  5
B9
330
1F
100
AcDbEntity
  8
1
  6
Continuous
 62
     7
370
     9
100
AcDbLine
 10
29.12109837502953
 20
74.02428949944441
 30
0.0
 11
29.46198762459433
 21
73.82747699944433
 31
0.0
  0
LINE
  5
BA
330
1F
100
AcDbEntity
  8
1
  6
Continuous
 62
     7
370
     9
100
AcDbLine
 10
219.1210983750296
 20
87.32747699944446
 30
0.0
 11
219.1210983750296
 21
74.1274769994445
 31
0.0
  0
LINE
  5
BB
330
1F
100
AcDbEntity
  8
1
  6
Continuous
 62
     7
370
     9
100
AcDbLine
 10
218.8210983750295
 20
87.62747699944454
 30
0.0
 11
219.1210983750296
 21
87.32747699944447
 31
0.0
  0
LINE
  5
BC
330
1F
100
AcDbEntity
  8
1
  6
Continuous
 62
     7
370
     9
100
AcDbLine
 10
219.1210983750296
 20
74.12747699944451
 30
0.0
 11
218.8210983750295
 21
73.82747699944451
 31
0.0
  0
LINE
  5
BD
330
1F
100
AcDbEntity
  8
1
  6
Continuous
 62
     7
370
     9
100
AcDbLine
 10
218.8210983750295
 20
87.62747699944451
 30
0.0
 11
218.8210983750295
 21
73.8274769994445
 31
0.0
  0
LINE
  5
BE
330
1F
100
AcDbEntity
  8
1
  6
Continuous
 62
     7
370
     9
100
AcDbLine
 10
79.12109837502953
 20
104.0242894994444
 30
0.0
 11
79.46198762459434
 21
103.8274769994443
 31
0.0
  0
LINE
  5
BF
330
1F
100
AcDbEntity
  8
1
  6
Continuous
 62
     7
370
     9
100
AcDbLine
 10
79.46198762459412
 20
117.6274769994445
 30
0.0
 11
218.8210983750295
 21
117.6274769994445
 31
0.0
  0
LINE
  5
C0
330
1F
100
AcDbEntity
  8
1
  6
Continuous
 62
     7
370
     9
100
AcDbLine
 10
79.46198762459403
 20
103.8274769994445
 30
0.0
 11
218.8210983750295
 21
103.8274769994445
 31
0.0
  0
LINE
  5
C1
330
1F
100
AcDbEntity
  8
1
  6
Continuous
 62
     7
370
     9
100
AcDbLine
 10
79.12109837502956
 20
117.4306644994446
 30
0.0
 11
79.46198762459434
 21
117.6274769994446
 31
0.0
  0
LINE
  5
C2
330
1F
100
AcDbEntity
  8
1
  6
Continuous
 62
     7
370
     9
100
AcDbLine
 10
69.12109837502973
 20
105.5367894994446
 30
0.0
 11
70.35980805244921
 21
104.2980798220252
 31
0.0
  0
LINE
  5
C3
330
1F
100
AcDbEntity
  8
1
  6
Continuous
 62
     7
370
     9
100
AcDbLine
 10
69.47619514922303
 20
105.181692725251
 30
0.0
 11
79.12109837502942
 21
104.8802894994445
 31
0.0
  0
LINE
  5
C4
330
1F
100
AcDbEntity
  8
1
  6
Continuous
 62
     7
370
     9
100
AcDbLine
 10
79.12109837502956
 20
117.4306644994445
 30
0.0
 11
79.12109837502956
 21
104.0242894994445
 31
0.0
  0
LINE
  5
C5
330
1F
100
AcDbEntity
  8
1
  6
Continuous
 62
     7
370
     9
100
AcDbLine
 10
69.12109837502956
 20
115.9181644994445
 30
0.0
 11
69.12109837502956
 21
105.5367894994446
 31
0.0
  0
LINE
  5
C6
330
1F
100
AcDbEntity
  8
1
  6
Continuous
 62
     7
370
     9
100
AcDbLine
 10
69.47619514922312
 20
116.2732612736381
 30
0.0
 11
79.12109837502948
 21
116.5746644994445
 31
0.0
  0
LINE
  5
C7
330
1F
100
AcDbEntity
  8
1
  6
Continuous
 62
     7
370
     9
100
AcDbLine
 10
70.35980805244893
 20
117.1568741768638
 30
0.0
 11
70.35980805244893
 21
104.2980798220251
 31
0.0
  0
LINE
  5
C8
330
1F
100
AcDbEntity
  8
1
  6
Continuous
 62
     7
370
     9
100
AcDbLine
 10
79.1210983750295
 20
116.5746644994446
 30
0.0
 11
80.94462311587316
 21
117.6274769994446
 31
0.0
  0
LINE
  5
C9
330
1F
100
AcDbEntity
  8
1
  6
Continuous
 62
     7
370
     9
100
AcDbLine
 10
70.35980805244887
 20
104.2980798220251
 30
0.0
 11
79.12109837502956
 21
104.0242894994445
 31
0.0
  0
LINE
  5
CA
330
1F
100
AcDbEntity
  8
1
  6
Continuous
 62
     7
370
     9
100
AcDbLine
 10
69.12109837502965
 20
115.9181644994443
 30
0.0
 11
70.3598080524491
 21
117.1568741768637
 31
0.0
  0
LINE
  5
CB
330
1F
100
AcDbEntity
  8
1
  6
Continuous
 62
     7
370
     9
100
AcDbLine
 10
70.35980805244898
 20
117.1568741768639
 30
0.0
 11
79.12109837502953
 21
117.4306644994445
 31
0.0
  0
LINE
  5
CC
330
1F
100
AcDbEntity
  8
1
  6
Continuous
 62
     7
370
     9
100
AcDbLine
 10
79.1210983750295
 20
104.8802894994445
 30
0.0
 11
80.94462311587313
 21
103.8274769994445
 31
0.0
  0
LINE
  5
CD
330
1F
100
AcDbEntity
  8
1
  6
Continuous
 62
     7
370
     9
100
AcDbLine
 10
219.1210983750296
 20
117.3274769994445
 30
0.0
 11
219.1210983750296
 21
104.1274769994445
 31
0.0
  0
LINE
  5
CE
330
1F
100
AcDbEntity
  8
1
  6
Continuous
 62
     7
370
     9
100
AcDbLine
 10
218.8210983750295
 20
117.6274769994446
 30
0.0
 11
219.1210983750296
 21
117.3274769994445
 31
0.0
  0
LINE
  5
CF
330
1F
100
AcDbEntity
  8
1
  6
Continuous
 62
     7
370
     9
100
AcDbLine
 10
219.1210983750296
 20
104.1274769994445
 30
0.0
 11
218.8210983750295
 21
103.8274769994445
 31
0.0
  0
LINE
  5
D0
330
1F
100
AcDbEntity
  8
1
  6
Continuous
 62
     7
370
     9
100
AcDbLine
 10
218.8210983750295
 20
117.6274769994445
 30
0.0
 11
218.8210983750295
 21
103.8274769994445
 31
0.0
  0
LINE
  5
D1
330
1F
100
AcDbEntity
  8
1
  6
Continuous
 62
     7
370
     9
100
AcDbLine
 10
104.1210983750296
 20
134.0242894994444
 30
0.0
 11
104.4619876245943
 21
133.8274769994443
 31
0.0
  0
LINE
  5
D2
330
1F
100
AcDbEntity
  8
1
  6
Continuous
 62
     7
370
     9
100
AcDbLine
 10
104.4619876245941
 20
147.6274769994445
 30
0.0
 11
218.8210983750295
 21
147.6274769994445
 31
0.0
  0
LINE
  5
D3
330
1F
100
AcDbEntity
  8
1
  6
Continuous
 62
     7
370
     9
100
AcDbLine
 10
104.4619876245941
 20
133.8274769994445
 30
0.0
 11
218.8210983750295
 21
133.8274769994445
 31
0.0
  0
LINE
  5
D4
330
1F
100
AcDbEntity
  8
1
  6
Continuous
 62
     7
370
     9
100
AcDbLine
 10
104.1210983750296
 20
147.4306644994446
 30
0.0
 11
104.4619876245943
 21
147.6274769994446
 31
0.0
  0
LINE
  5
D5
330
1F
100
AcDbEntity
  8
1
  6
Continuous
 62
     7
370
     9
100
AcDbLine
 10
94.12109837502976
 20
135.5367894994446
 30
0.0
 11
95.35980805244921
 21
134.2980798220252
 31
0.0
  0
LINE
  5
D6
330
1F
100
AcDbEntity
  8
1
  6
Continuous
 62
     7
370
     9
100
AcDbLine
 10
94.47619514922303
 20
135.181692725251
 30
0.0
 11
104.1210983750294
 21
134.8802894994445
 31
0.0
  0
LINE
  5
D7
330
1F
100
AcDbEntity
  8
1
  6
Continuous
 62
     7
370
     9
100
AcDbLine
 10
104.1210983750296
 20
147.4306644994445
 30
0.0
 11
104.1210983750296
 21
134.0242894994445
 31
0.0
  0
LINE
  5
D8
330
1F
100
AcDbEntity
  8
1
  6
Continuous
 62
     7
370
     9
100
AcDbLine
 10
94.12109837502956
 20
145.9181644994445
 30
0.0
 11
94.12109837502956
 21
135.5367894994446
 31
0.0
  0
LINE
  5
D9
330
1F
100
AcDbEntity
  8
1
  6
Continuous
 62
     7
370
     9
100
AcDbLine
 10
94.47619514922312
 20
146.2732612736381
 30
0.0
 11
104.1210983750295
 21
146.5746644994445
 31
0.0
  0
LINE
  5
DA
330
1F
100
AcDbEntity
  8
1
  6
Continuous
 62
     7
370
     9
100
AcDbLine
 10
95.35980805244893
 20
147.1568741768638
 30
0.0
 11
95.35980805244893
 21
134.2980798220252
 31
0.0
  0
LINE
  5
DB
330
1F
100
AcDbEntity
  8
1
  6
Continuous
 62
     7
370
     9
100
AcDbLine
 10
104.1210983750295
 20
146.5746644994446
 30
0.0
 11
105.9446231158732
 21
147.6274769994446
 31
0.0
  0
LINE
  5
DC
330
1F
100
AcDbEntity
  8
1
  6
Continuous
 62
     7
370
     9
100
AcDbLine
 10
95.35980805244887
 20
134.2980798220252
 30
0.0
 11
104.1210983750296
 21
134.0242894994445
 31
0.0
  0
LINE
  5
DD
330
1F
100
AcDbEntity
  8
1
  6
Continuous
 62
     7
370
     9
100
AcDbLine
 10
94.12109837502965
 20
145.9181644994443
 30
0.0
 11
95.3598080524491
 21
147.1568741768637
 31
0.0
  0
LINE
  5
DE
330
1F
100
AcDbEntity
  8
1
  6
Continuous
 62
     7
370
     9
100
AcDbLine
 10
95.35980805244898
 20
147.1568741768639
 30
0.0
 11
104.1210983750295
 21
147.4306644994445
 31
0.0
  0
LINE
  5
DF
330
1F
100
AcDbEntity
  8
1
  6
Continuous
 62
     7
370
     9
100
AcDbLine
 10
104.1210983750295
 20
134.8802894994445
 30
0.0
 11
105.9446231158731
 21
133.8274769994445
 31
0.0
  0
LINE
  5
E0
330
1F
100
AcDbEntity
  8
1
  6
Continuous
 62
     7
370
     9
100
AcDbLine
 10
219.1210983750296
 20
147.3274769994445
 30
0.0
 11
219.1210983750296
 21
134.1274769994445
 31
0.0
  0
LINE
  5
E1
330
1F
100
AcDbEntity
  8
1
  6
Continuous
 62
     7
370
     9
100
AcDbLine
 10
218.8210983750295
 20
147.6274769994445
 30
0.0
 11
219.1210983750296
 21
147.3274769994445
 31
0.0
  0
LINE
  5
E2
330
1F
100
AcDbEntity
  8
1
  6
Continuous
 62
     7
370
     9
100
AcDbLine
 10
219.1210983750296
 20
134.1274769994445
 30
0.0
 11
218.8210983750295
 21
133.8274769994445
 31
0.0
  0
LINE
  5
E3
330
1F
100
AcDbEntity
  8
1
  6
Continuous
 62
     7
370
     9
100
AcDbLine
 10
218.8210983750295
 20
147.6274769994445
 30
0.0
 11
218.8210983750295
 21
133.8274769994445
 31
0.0
  0
LINE
  5
E4
330
1F
100
AcDbEntity
  8
1
  6
Continuous
 62
     7
370
     9
100
AcDbLine
 10
129.1210983750295
 20
164.0242894994444
 30
0.0
 11
129.4619876245943
 21
163.8274769994443
 31
0.0
  0
LINE
  5
E5
330
1F
100
AcDbEntity
  8
1
  6
Continuous
 62
     7
370
     9
100
AcDbLine
 10
129.4619876245941
 20
177.6274769994445
 30
0.0
 11
218.8210983750295
 21
177.6274769994445
 31
0.0
  0
LINE
  5
E6
330
1F
100
AcDbEntity
  8
1
  6
Continuous
 62
     7
370
     9
100
AcDbLine
 10
129.4619876245941
 20
163.8274769994445
 30
0.0
 11
218.8210983750295
 21
163.8274769994445
 31
0.0
  0
LINE
  5
E7
330
1F
100
AcDbEntity
  8
1
  6
Continuous
 62
     7
370
     9
100
AcDbLine
 10
129.1210983750296
 20
177.4306644994446
 30
0.0
 11
129.4619876245943
 21
177.6274769994446
 31
0.0
  0
LINE
  5
E8
330
1F
100
AcDbEntity
  8
1
  6
Continuous
 62
     7
370
     9
100
AcDbLine
 10
119.1210983750297
 20
165.5367894994446
 30
0.0
 11
120.3598080524492
 21
164.2980798220252
 31
0.0
  0
LINE
  5
E9
330
1F
100
AcDbEntity
  8
1
  6
Continuous
 62
     7
370
     9
100
AcDbLine
 10
119.476195149223
 20
165.181692725251
 30
0.0
 11
129.1210983750294
 21
164.8802894994445
 31
0.0
  0
LINE
  5
EA
330
1F
100
AcDbEntity
  8
1
  6
Continuous
 62
     7
370
     9
100
AcDbLine
 10
129.1210983750296
 20
177.4306644994445
 30
0.0
 11
129.1210983750296
 21
164.0242894994445
 31
0.0
  0
LINE
  5
EB
330
1F
100
AcDbEntity
  8
1
  6
Continuous
 62
     7
370
     9
100
AcDbLine
 10
119.1210983750296
 20
175.9181644994445
 30
0.0
 11
119.1210983750296
 21
165.5367894994446
 31
0.0
  0
LINE
  5
EC
330
1F
100
AcDbEntity
  8
1
  6
Continuous
 62
     7
370
     9
100
AcDbLine
 10
119.4761951492231
 20
176.2732612736381
 30
0.0
 11
129.1210983750295
 21
176.5746644994445
 31
0.0
  0
LINE
  5
ED
330
1F
100
AcDbEntity
  8
1
  6
Continuous
 62
     7
370
     9
100
AcDbLine
 10
120.3598080524489
 20
177.1568741768638
 30
0.0
 11
120.3598080524489
 21
164.2980798220252
 31
0.0
  0
LINE
  5
EE
330
1F
100
AcDbEntity
  8
1
  6
Continuous
 62
     7
370
     9
100
AcDbLine
 10
129.1210983750295
 20
176.5746644994446
 30
0.0
 11
130.9446231158732
 21
177.6274769994446
 31
0.0
  0
LINE
  5
EF
330
1F
100
AcDbEntity
  8
1
  6
Continuous
 62
     7
370
     9
100
AcDbLine
 10
120.3598080524489
 20
164.2980798220252
 30
0.0
 11
129.1210983750296
 21
164.0242894994445
 31
0.0
  0
LINE
  5
F0
330
1F
100
AcDbEntity
  8
1
  6
Continuous
 62
     7
370
     9
100
AcDbLine
 10
119.1210983750296
 20
175.9181644994443
 30
0.0
 11
120.3598080524491
 21
177.1568741768637
 31
0.0
  0
LINE
  5
F1
330
1F
100
AcDbEntity
  8
1
  6
Continuous
 62
     7
370
     9
100
AcDbLine
 10
120.359808052449
 20
177.1568741768639
 30
0.0
 11
129.1210983750296
 21
177.4306644994445
 31
0.0
  0
LINE
  5
F2
330
1F
100
AcDbEntity
  8
1
  6
Continuous
 62
     7
370
     9
100
AcDbLine
 10
129.1210983750295
 20
164.8802894994445
 30
0.0
 11
130.9446231158731
 21
163.8274769994445
 31
0.0
  0
LINE
  5
F3
330
1F
100
AcDbEntity
  8
1
  6
Continuous
 62
     7
370
     9
100
AcDbLine
 10
219.1210983750296
 20
177.3274769994445
 30
0.0
 11
219.1210983750296
 21
164.1274769994445
 31
0.0
  0
LINE
  5
F4
330
1F
100
AcDbEntity
  8
1
  6
Continuous
 62
     7
370
     9
100
AcDbLine
 10
218.8210983750295
 20
177.6274769994445
 30
0.0
 11
219.1210983750296
 21
177.3274769994445
 31
0.0
  0
LINE
  5
F5
330
1F
100
AcDbEntity
  8
1
  6
Continuous
 62
     7
370
     9
100
AcDbLine
 10
219.1210983750294
 20
164.1274769994445
 30
0.0
 11
218.8210983750295
 21
163.8274769994445
 31
0.0
  0
LINE
  5
F6
330
1F
100
AcDbEntity
  8
1
  6
Continuous
 62
     7
370
     9
100
AcDbLine
 10
218.8210983750295
 20
177.6274769994445
 30
0.0
 11
218.8210983750295
 21
163.8274769994445
 31
0.0
  0
LINE
  5
F7
330
1F
100
AcDbEntity
  8
1
  6
Continuous
 62
     7
370
     9
100
AcDbLine
 10
154.1210983750296
 20
194.0242894994444
 30
0.0
 11
154.4619876245943
 21
193.8274769994443
 31
0.0
  0
LINE
  5
F8
330
1F
100
AcDbEntity
  8
1
  6
Continuous
 62
     7
370
     9
100
AcDbLine
 10
154.4619876245942
 20
207.6274769994445
 30
0.0
 11
218.8210983750295
 21
207.6274769994445
 31
0.0
  0
LINE
  5
F9
330
1F
100
AcDbEntity
  8
1
  6
Continuous
 62
     7
370
     9
100
AcDbLine
 10
154.4619876245941
 20
193.8274769994445
 30
0.0
 11
218.8210983750295
 21
193.8274769994445
 31
0.0
  0
LINE
  5
FA
330
1F
100
AcDbEntity
  8
1
  6
Continuous
 62
     7
370
     9
100
AcDbLine
 10
154.1210983750296
 20
207.4306644994446
 30
0.0
 11
154.4619876245943
 21
207.6274769994446
 31
0.0
  0
LINE
  5
FB
330
1F
100
AcDbEntity
  8
1
  6
Continuous
 62
     7
370
     9
100
AcDbLine
 10
144.1210983750297
 20
195.5367894994446
 30
0.0
 11
145.3598080524492
 21
194.2980798220253
 31
0.0
  0
LINE
  5
FC
330
1F
100
AcDbEntity
  8
1
  6
Continuous
 62
     7
370
     9
100
AcDbLine
 10
144.476195149223
 20
195.181692725251
 30
0.0
 11
154.1210983750294
 21
194.8802894994445
 31
0.0
  0
LINE
  5
FD
330
1F
100
AcDbEntity
  8
1
  6
Continuous
 62
     7
370
     9
100
AcDbLine
 10
154.1210983750296
 20
207.4306644994445
 30
0.0
 11
154.1210983750296
 21
194.0242894994445
 31
0.0
  0
LINE
  5
FE
330
1F
100
AcDbEntity
  8
1
  6
Continuous
 62
     7
370
     9
100
AcDbLine
 10
144.1210983750296
 20
205.9181644994445
 30
0.0
 11
144.1210983750296
 21
195.5367894994446
 31
0.0
  0
LINE
  5
FF
330
1F
100
AcDbEntity
  8
1
  6
Continuous
 62
     7
370
     9
100
AcDbLine
 10
144.4761951492231
 20
206.2732612736381
 30
0.0
 11
154.1210983750294
 21
206.5746644994445
 31
0.0
  0
LINE
  5
100
330
1F
100
AcDbEntity
  8
1
  6
Continuous
 62
     7
370
     9
100
AcDbLine
 10
145.3598080524489
 20
207.1568741768638
 30
0.0
 11
145.3598080524489
 21
194.2980798220252
 31
0.0
  0
LINE
  5
101
330
1F
100
AcDbEntity
  8
1
  6
Continuous
 62
     7
370
     9
100
AcDbLine
 10
154.1210983750296
 20
206.5746644994446
 30
0.0
 11
155.9446231158732
 21
207.6274769994446
 31
0.0
  0
LINE
  5
102
330
1F
100
AcDbEntity
  8
1
  6
Continuous
 62
     7
370
     9
100
AcDbLine
 10
145.3598080524489
 20
194.2980798220252
 30
0.0
 11
154.1210983750296
 21
194.0242894994445
 31
0.0
  0
LINE
  5
103
330
1F
100
AcDbEntity
  8
1
  6
Continuous
 62
     7
370
     9
100
AcDbLine
 10
144.1210983750297
 20
205.9181644994443
 30
0.0
 11
145.3598080524491
 21
207.1568741768637
 31
0.0
  0
LINE
  5
104
330
1F
100
AcDbEntity
  8
1
  6
Continuous
 62
     7
370
     9
100
AcDbLine
 10
145.359808052449
 20
207.1568741768639
 30
0.0
 11
154.1210983750296
 21
207.4306644994445
 31
0.0
  0
LINE
  5
105
330
1F
100
AcDbEntity
  8
1
  6
Continuous
 62
     7
370
     9
100
AcDbLine
 10
154.1210983750294
 20
194.8802894994444
 30
0.0
 11
155.9446231158732
 21
193.8274769994444
 31
0.0
  0
LINE
  5
106
330
1F
100
AcDbEntity
  8
1
  6
Continuous
 62
     7
370
     9
100
AcDbLine
 10
219.1210983750296
 20
207.3274769994445
 30
0.0
 11
219.1210983750296
 21
194.1274769994445
 31
0.0
  0
LINE
  5
107
330
1F
100
AcDbEntity
  8
1
  6
Continuous
 62
     7
370
     9
100
AcDbLine
 10
218.8210983750295
 20
207.6274769994445
 30
0.0
 11
219.1210983750296
 21
207.3274769994445
 31
0.0
  0
LINE
  5
108
330
1F
100
AcDbEntity
  8
1
  6
Continuous
 62
     7
370
     9
100
AcDbLine
 10
219.1210983750296
 20
194.1274769994445
 30
0.0
 11
218.8210983750295
 21
193.8274769994445
 31
0.0
  0
LINE
  5
109
330
1F
100
AcDbEntity
  8
1
  6
Continuous
 62
     7
370
     9
100
AcDbLine
 10
218.8210983750295
 20
207.6274769994445
 30
0.0
 11
218.8210983750295
 21
193.8274769994445
 31
0.0
  0
LINE
  5
10A
330
1F
100
AcDbEntity
  8
1
  6
Continuous
 62
     7
370
     9
100
AcDbLine
 10
179.1210983750296
 20
224.0242894994444
 30
0.0
 11
179.4619876245944
 21
223.8274769994443
 31
0.0
  0
LINE
  5
10B
330
1F
100
AcDbEntity
  8
1
  6
Continuous
 62
     7
370
     9
100
AcDbLine
 10
179.4619876245942
 20
237.6274769994445
 30
0.0
 11
218.8210983750295
 21
237.6274769994445
 31
0.0
  0
LINE
  5
10C
330
1F
100
AcDbEntity
  8
1
  6
Continuous
 62
     7
370
     9
100
AcDbLine
 10
179.461987624594
 20
223.8274769994445
 30
0.0
 11
218.8210983750295
 21
223.8274769994445
 31
0.0
  0
LINE
  5
10D
330
1F
100
AcDbEntity
  8
1
  6
Continuous
 62
     7
370
     9
100
AcDbLine
 10
179.1210983750296
 20
237.4306644994445
 30
0.0
 11
179.4619876245944
 21
237.6274769994446
 31
0.0
  0
LINE
  5
10E
330
1F
100
AcDbEntity
  8
1
  6
Continuous
 62
     7
370
     9
100
AcDbLine
 10
169.1210983750298
 20
225.5367894994446
 30
0.0
 11
170.3598080524492
 21
224.2980798220253
 31
0.0
  0
LINE
  5
10F
330
1F
100
AcDbEntity
  8
1
  6
Continuous
 62
     7
370
     9
100
AcDbLine
 10
169.4761951492231
 20
225.181692725251
 30
0.0
 11
179.1210983750294
 21
224.8802894994445
 31
0.0
  0
LINE
  5
110
330
1F
100
AcDbEntity
  8
1
  6
Continuous
 62
     7
370
     9
100
AcDbLine
 10
179.1210983750296
 20
237.4306644994445
 30
0.0
 11
179.1210983750296
 21
224.0242894994445
 31
0.0
  0
LINE
  5
111
330
1F
100
AcDbEntity
  8
1
  6
Continuous
 62
     7
370
     9
100
AcDbLine
 10
169.1210983750296
 20
235.9181644994445
 30
0.0
 11
169.1210983750296
 21
225.5367894994446
 31
0.0
  0
LINE
  5
112
330
1F
100
AcDbEntity
  8
1
  6
Continuous
 62
     7
370
     9
100
AcDbLine
 10
169.4761951492232
 20
236.273261273638
 30
0.0
 11
179.1210983750294
 21
236.5746644994445
 31
0.0
  0
LINE
  5
113
330
1F
100
AcDbEntity
  8
1
  6
Continuous
 62
     7
370
     9
100
AcDbLine
 10
170.359808052449
 20
237.1568741768638
 30
0.0
 11
170.359808052449
 21
224.2980798220252
 31
0.0
  0
LINE
  5
114
330
1F
100
AcDbEntity
  8
1
  6
Continuous
 62
     7
370
     9
100
AcDbLine
 10
179.1210983750296
 20
236.5746644994446
 30
0.0
 11
180.9446231158732
 21
237.6274769994446
 31
0.0
  0
LINE
  5
115
330
1F
100
AcDbEntity
  8
1
  6
Continuous
 62
     7
370
     9
100
AcDbLine
 10
170.3598080524489
 20
224.2980798220252
 30
0.0
 11
179.1210983750296
 21
224.0242894994445
 31
0.0
  0
LINE
  5
116
330
1F
100
AcDbEntity
  8
1
  6
Continuous
 62
     7
370
     9
100
AcDbLine
 10
169.1210983750297
 20
235.9181644994443
 30
0.0
 11
170.359808052449
 21
237.1568741768637
 31
0.0
  0
LINE
  5
117
330
1F
100
AcDbEntity
  8
1
  6
Continuous
 62
     7
370
     9
100
AcDbLine
 10
170.359808052449
 20
237.1568741768639
 30
0.0
 11
179.1210983750294
 21
237.4306644994445
 31
0.0
  0
LINE
  5
118
330
1F
100
AcDbEntity
  8
1
  6
Continuous
 62
     7
370
     9
100
AcDbLine
 10
179.1210983750294
 20
224.8802894994444
 30
0.0
 11
180.9446231158731
 21
223.8274769994444
 31
0.0
  0
LINE
  5
119
330
1F
100
AcDbEntity
  8
1
  6
Continuous
 62
     7
370
     9
100
AcDbLine
 10
219.1210983750296
 20
237.3274769994445
 30
0.0
 11
219.1210983750296
 21
224.1274769994445
 31
0.0
  0
LINE
  5
11A
330
1F
100
AcDbEntity
  8
1
  6
Continuous
 62
     7
370
     9
100
AcDbLine
 10
218.8210983750295
 20
237.6274769994446
 30
0.0
 11
219.1210983750296
 21
237.3274769994445
 31
0.0
  0
LINE
  5
11B
330
1F
100
AcDbEntity
  8
1
  6
Continuous
 62
     7
370
     9
100
AcDbLine
 10
219.1210983750296
 20
224.1274769994445
 30
0.0
 11
218.8210983750295
 21
223.8274769994445
 31
0.0
  0
LINE
  5
11C
330
1F
100
AcDbEntity
  8
1
  6
Continuous
 62
     7
370
     9
100
AcDbLine
 10
218.8210983750295
 20
237.6274769994445
 30
0.0
 11
218.8210983750295
 21
223.8274769994445
 31
0.0
  0
CIRCLE
  5
11D
330
1F
100
AcDbEntity
  8
1
  6
Continuous
 62
     7
370
     9
100
AcDbCircle
 10
119.1210983750296
 20
230.7274769994445
 30
0.0
 40
6.899999999999999
  0
CIRCLE
  5
11E
330
1F
100
AcDbEntity
  8
1
  6
Continuous
 62
     7
370
     9
100
AcDbCircle
 10
119.1210983750296
 20
230.7274769994445
 30
0.0
 40
6.578499999999998
  0
CIRCLE
  5
11F
330
1F
100
AcDbEntity
  8
1
  6
Continuous
 62
     7
370
     9
100
AcDbCircle
 10
119.1210983750296
 20
230.7274769994445
 30
0.0
 40
5.722499999999997
  0
CIRCLE
  5
120
330
1F
100
AcDbEntity
  8
1
  6
Continuous
 62
     7
370
     9
100
AcDbCircle
 10
119.1210983750296
 20
230.7274769994445
 30
0.0
 40
4.130000000000003
  0
LINE
  5
121
330
1F
100
AcDbEntity
  8
1
  6
Continuous
 62
     7
370
     9
100
AcDbLine
 10
289.1761951492232
 20
76.71841147525099
 30
0.0
 11
299.8210983750295
 21
76.38575824944455
 31
0.0
  0
LINE
  5
122
330
1F
100
AcDbEntity
  8
1
  6
Continuous
 62
     7
370
     9
100
AcDbLine
 10
288.8210983750296
 20
77.07350824944457
 30
0.0
 11
290.059808052449
 21
75.83479857202526
 31
0.0
  0
LINE
  5
123
330
1F
100
AcDbEntity
  8
1
  6
Continuous
 62
     7
370
     9
100
AcDbLine
 10
290.0598080524489
 20
92.17734292686386
 30
0.0
 11
299.8210983750295
 21
92.48238324944451
 31
0.0
  0
LINE
  5
124
330
1F
100
AcDbEntity
  8
1
  6
Continuous
 62
     7
370
     9
100
AcDbLine
 10
299.8210983750296
 20
91.6263832494445
 30
0.0
 11
301.6045694409483
 21
92.65607074944458
 31
0.0
  0
LINE
  5
125
330
1F
100
AcDbEntity
  8
1
  6
Continuous
 62
     7
370
     9
100
AcDbLine
 10
289.1761951492231
 20
91.29373002363805
 30
0.0
 11
299.8210983750295
 21
91.6263832494445
 31
0.0
  0
LINE
  5
126
330
1F
100
AcDbEntity
  8
1
  6
Continuous
 62
     7
370
     9
100
AcDbLine
 10
299.8210983750296
 20
92.48238324944451
 30
0.0
 11
299.8210983750296
 21
75.5297582494445
 31
0.0
  0
LINE
  5
127
330
1F
100
AcDbEntity
  8
1
  6
Continuous
 62
     7
370
     9
100
AcDbLine
 10
290.0598080524489
 20
92.17734292686386
 30
0.0
 11
290.0598080524489
 21
75.83479857202515
 31
0.0
  0
LINE
  5
128
330
1F
100
AcDbEntity
  8
1
  6
Continuous
 62
     7
370
     9
100
AcDbLine
 10
290.0598080524489
 20
75.83479857202514
 30
0.0
 11
299.8210983750296
 21
75.5297582494445
 31
0.0
  0
LINE
  5
129
330
1F
100
AcDbEntity
  8
1
  6
Continuous
 62
     7
370
     9
100
AcDbLine
 10
288.8210983750295
 20
90.93863324944449
 30
0.0
 11
290.0598080524488
 21
92.17734292686383
 31
0.0
  0
LINE
  5
12A
330
1F
100
AcDbEntity
  8
1
  6
Continuous
 62
     7
370
     9
100
AcDbLine
 10
299.8210983750295
 20
76.38575824944446
 30
0.0
 11
301.604569440948
 21
75.3560707494445
 31
0.0
  0
LINE
  5
12B
330
1F
100
AcDbEntity
  8
1
  6
Continuous
 62
     7
370
     9
100
AcDbLine
 10
288.8210983750296
 20
90.9386332494445
 30
0.0
 11
288.8210983750296
 21
77.07350824944457
 31
0.0
  0
LINE
  5
12C
330
1F
100
AcDbEntity
  8
1
  6
Continuous
 62
     7
370
     9
100
AcDbLine
 10
300.121933949669
 20
92.65607074944448
 30
0.0
 11
488.5210983750295
 21
92.65607074944448
 31
0.0
  0
LINE
  5
12D
330
1F
100
AcDbEntity
  8
1
  6
Continuous
 62
     7
370
     9
100
AcDbLine
 10
299.8210983750296
 20
75.5297582494445
 30
0.0
 11
300.1219339496691
 21
75.35607074944453
 31
0.0
  0
LINE
  5
12E
330
1F
100
AcDbEntity
  8
1
  6
Continuous
 62
     7
370
     9
100
AcDbLine
 10
299.8210983750295
 20
92.4823832494446
 30
0.0
 11
300.1219339496691
 21
92.65607074944458
 31
0.0
  0
LINE
  5
12F
330
1F
100
AcDbEntity
  8
1
  6
Continuous
 62
     7
370
     9
100
AcDbLine
 10
300.1219339496691
 20
75.35607074944453
 30
0.0
 11
488.5210983750295
 21
75.35607074944453
 31
0.0
  0
LINE
  5
130
330
1F
100
AcDbEntity
  8
1
  6
Continuous
 62
     7
370
     9
100
AcDbLine
 10
488.8210983750297
 20
92.35607074944447
 30
0.0
 11
488.8210983750297
 21
75.65607074944452
 31
0.0
  0
LINE
  5
131
330
1F
100
AcDbEntity
  8
1
  6
Continuous
 62
     7
370
     9
100
AcDbLine
 10
488.5210983750295
 20
92.65607074944451
 30
0.0
 11
488.8210983750297
 21
92.35607074944448
 31
0.0
  0
LINE
  5
132
330
1F
100
AcDbEntity
  8
1
  6
Continuous
 62
     7
370
     9
100
AcDbLine
 10
488.8210983750295
 20
75.65607074944458
 30
0.0
 11
488.5210983750295
 21
75.35607074944458
 31
0.0
  0
LINE
  5
133
330
1F
100
AcDbEntity
  8
1
  6
Continuous
 62
     7
370
     9
100
AcDbLine
 10
488.5210983750295
 20
92.65607074944448
 30
0.0
 11
488.5210983750295
 21
75.35607074944453
 31
0.0
  0
LINE
  5
134
330
1F
100
AcDbEntity
  8
1
  6
Continuous
 62
     7
370
     9
100
AcDbLine
 10
488.8210983750297
 20
137.3560707494445
 30
0.0
 11
488.8210983750297
 21
120.6560707494445
 31
0.0
  0
LINE
  5
135
330
1F
100
AcDbEntity
  8
1
  6
Continuous
 62
     7
370
     9
100
AcDbLine
 10
350.1219339496691
 20
120.3560707494445
 30
0.0
 11
488.5210983750295
 21
120.3560707494445
 31
0.0
  0
LINE
  5
136
330
1F
100
AcDbEntity
  8
1
  6
Continuous
 62
     7
370
     9
100
AcDbLine
 10
349.8210983750295
 20
137.4823832494446
 30
0.0
 11
350.121933949669
 21
137.6560707494446
 31
0.0
  0
LINE
  5
137
330
1F
100
AcDbEntity
  8
1
  6
Continuous
 62
     7
370
     9
100
AcDbLine
 10
349.8210983750296
 20
120.5297582494445
 30
0.0
 11
350.1219339496691
 21
120.3560707494445
 31
0.0
  0
LINE
  5
138
330
1F
100
AcDbEntity
  8
1
  6
Continuous
 62
     7
370
     9
100
AcDbLine
 10
350.1219339496689
 20
137.6560707494445
 30
0.0
 11
488.5210983750295
 21
137.6560707494445
 31
0.0
  0
LINE
  5
139
330
1F
100
AcDbEntity
  8
1
  6
Continuous
 62
     7
370
     9
100
AcDbLine
 10
338.8210983750296
 20
135.9386332494445
 30
0.0
 11
338.8210983750296
 21
122.0735082494446
 31
0.0
  0
LINE
  5
13A
330
1F
100
AcDbEntity
  8
1
  6
Continuous
 62
     7
370
     9
100
AcDbLine
 10
349.8210983750295
 20
121.3857582494445
 30
0.0
 11
351.604569440948
 21
120.3560707494445
 31
0.0
  0
LINE
  5
13B
330
1F
100
AcDbEntity
  8
1
  6
Continuous
 62
     7
370
     9
100
AcDbLine
 10
338.8210983750295
 20
135.9386332494445
 30
0.0
 11
340.0598080524488
 21
137.1773429268638
 31
0.0
  0
LINE
  5
13C
330
1F
100
AcDbEntity
  8
1
  6
Continuous
 62
     7
370
     9
100
AcDbLine
 10
340.0598080524489
 20
120.8347985720251
 30
0.0
 11
349.8210983750296
 21
120.5297582494445
 31
0.0
  0
LINE
  5
13D
330
1F
100
AcDbEntity
  8
1
  6
Continuous
 62
     7
370
     9
100
AcDbLine
 10
340.0598080524489
 20
137.1773429268638
 30
0.0
 11
340.0598080524489
 21
120.8347985720252
 31
0.0
  0
LINE
  5
13E
330
1F
100
AcDbEntity
  8
1
  6
Continuous
 62
     7
370
     9
100
AcDbLine
 10
349.8210983750296
 20
137.4823832494445
 30
0.0
 11
349.8210983750296
 21
120.5297582494445
 31
0.0
  0
LINE
  5
13F
330
1F
100
AcDbEntity
  8
1
  6
Continuous
 62
     7
370
     9
100
AcDbLine
 10
339.1761951492231
 20
136.293730023638
 30
0.0
 11
349.8210983750295
 21
136.6263832494445
 31
0.0
  0
LINE
  5
140
330
1F
100
AcDbEntity
  8
1
  6
Continuous
 62
     7
370
     9
100
AcDbLine
 10
349.8210983750296
 20
136.6263832494445
 30
0.0
 11
351.6045694409482
 21
137.6560707494446
 31
0.0
  0
LINE
  5
141
330
1F
100
AcDbEntity
  8
1
  6
Continuous
 62
     7
370
     9
100
AcDbLine
 10
340.0598080524489
 20
137.1773429268638
 30
0.0
 11
349.8210983750295
 21
137.4823832494445
 31
0.0
  0
LINE
  5
142
330
1F
100
AcDbEntity
  8
1
  6
Continuous
 62
     7
370
     9
100
AcDbLine
 10
338.8210983750296
 20
122.0735082494446
 30
0.0
 11
340.0598080524489
 21
120.8347985720252
 31
0.0
  0
LINE
  5
143
330
1F
100
AcDbEntity
  8
1
  6
Continuous
 62
     7
370
     9
100
AcDbLine
 10
339.1761951492232
 20
121.718411475251
 30
0.0
 11
349.8210983750296
 21
121.3857582494445
 31
0.0
  0
LINE
  5
144
330
1F
100
AcDbEntity
  8
1
  6
Continuous
 62
     7
370
     9
100
AcDbLine
 10
488.5210983750295
 20
137.6560707494445
 30
0.0
 11
488.8210983750297
 21
137.3560707494445
 31
0.0
  0
LINE
  5
145
330
1F
100
AcDbEntity
  8
1
  6
Continuous
 62
     7
370
     9
100
AcDbLine
 10
488.8210983750297
 20
120.6560707494445
 30
0.0
 11
488.5210983750295
 21
120.3560707494445
 31
0.0
  0
LINE
  5
146
330
1F
100
AcDbEntity
  8
1
  6
Continuous
 62
     7
370
     9
100
AcDbLine
 10
488.5210983750295
 20
137.6560707494445
 30
0.0
 11
488.5210983750295
 21
120.3560707494445
 31
0.0
  0
LINE
  5
147
330
1F
100
AcDbEntity
  8
1
  6
Continuous
 62
     7
370
     9
100
AcDbLine
 10
488.8210983750297
 20
182.3560707494445
 30
0.0
 11
488.8210983750297
 21
165.6560707494446
 31
0.0
  0
LINE
  5
148
330
1F
100
AcDbEntity
  8
1
  6
Continuous
 62
     7
370
     9
100
AcDbLine
 10
375.1219339496691
 20
165.3560707494445
 30
0.0
 11
488.5210983750295
 21
165.3560707494445
 31
0.0
  0
LINE
  5
149
330
1F
100
AcDbEntity
  8
1
  6
Continuous
 62
     7
370
     9
100
AcDbLine
 10
374.8210983750295
 20
182.4823832494446
 30
0.0
 11
375.121933949669
 21
182.6560707494446
 31
0.0
  0
LINE
  5
14A
330
1F
100
AcDbEntity
  8
1
  6
Continuous
 62
     7
370
     9
100
AcDbLine
 10
374.8210983750296
 20
165.5297582494445
 30
0.0
 11
375.1219339496691
 21
165.3560707494445
 31
0.0
  0
LINE
  5
14B
330
1F
100
AcDbEntity
  8
1
  6
Continuous
 62
     7
370
     9
100
AcDbLine
 10
375.1219339496689
 20
182.6560707494445
 30
0.0
 11
488.5210983750295
 21
182.6560707494445
 31
0.0
  0
LINE
  5
14C
330
1F
100
AcDbEntity
  8
1
  6
Continuous
 62
     7
370
     9
100
AcDbLine
 10
363.8210983750296
 20
180.9386332494445
 30
0.0
 11
363.8210983750296
 21
167.0735082494446
 31
0.0
  0
LINE
  5
14D
330
1F
100
AcDbEntity
  8
1
  6
Continuous
 62
     7
370
     9
100
AcDbLine
 10
374.8210983750295
 20
166.3857582494445
 30
0.0
 11
376.604569440948
 21
165.3560707494445
 31
0.0
  0
LINE
  5
14E
330
1F
100
AcDbEntity
  8
1
  6
Continuous
 62
     7
370
     9
100
AcDbLine
 10
363.8210983750295
 20
180.9386332494445
 30
0.0
 11
365.0598080524488
 21
182.1773429268638
 31
0.0
  0
LINE
  5
14F
330
1F
100
AcDbEntity
  8
1
  6
Continuous
 62
     7
370
     9
100
AcDbLine
 10
365.0598080524489
 20
165.8347985720251
 30
0.0
 11
374.8210983750296
 21
165.5297582494445
 31
0.0
  0
LINE
  5
150
330
1F
100
AcDbEntity
  8
1
  6
Continuous
 62
     7
370
     9
100
AcDbLine
 10
365.0598080524489
 20
182.1773429268638
 30
0.0
 11
365.0598080524489
 21
165.8347985720251
 31
0.0
  0
LINE
  5
151
330
1F
100
AcDbEntity
  8
1
  6
Continuous
 62
     7
370
     9
100
AcDbLine
 10
374.8210983750296
 20
182.4823832494445
 30
0.0
 11
374.8210983750296
 21
165.5297582494445
 31
0.0
  0
LINE
  5
152
330
1F
100
AcDbEntity
  8
1
  6
Continuous
 62
     7
370
     9
100
AcDbLine
 10
364.1761951492231
 20
181.293730023638
 30
0.0
 11
374.8210983750295
 21
181.6263832494445
 31
0.0
  0
LINE
  5
153
330
1F
100
AcDbEntity
  8
1
  6
Continuous
 62
     7
370
     9
100
AcDbLine
 10
374.8210983750296
 20
181.6263832494445
 30
0.0
 11
376.6045694409482
 21
182.6560707494446
 31
0.0
  0
LINE
  5
154
330
1F
100
AcDbEntity
  8
1
  6
Continuous
 62
     7
370
     9
100
AcDbLine
 10
365.0598080524489
 20
182.1773429268638
 30
0.0
 11
374.8210983750295
 21
182.4823832494445
 31
0.0
  0
LINE
  5
155
330
1F
100
AcDbEntity
  8
1
  6
Continuous
 62
     7
370
     9
100
AcDbLine
 10
363.8210983750297
 20
167.0735082494446
 30
0.0
 11
365.059808052449
 21
165.8347985720252
 31
0.0
  0
LINE
  5
156
330
1F
100
AcDbEntity
  8
1
  6
Continuous
 62
     7
370
     9
100
AcDbLine
 10
364.1761951492232
 20
166.718411475251
 30
0.0
 11
374.8210983750296
 21
166.3857582494446
 31
0.0
  0
LINE
  5
157
330
1F
100
AcDbEntity
  8
1
  6
Continuous
 62
     7
370
     9
100
AcDbLine
 10
488.5210983750295
 20
182.6560707494445
 30
0.0
 11
488.8210983750297
 21
182.3560707494445
 31
0.0
  0
LINE
  5
158
330
1F
100
AcDbEntity
  8
1
  6
Continuous
 62
     7
370
     9
100
AcDbLine
 10
488.8210983750295
 20
165.6560707494446
 30
0.0
 11
488.5210983750295
 21
165.3560707494445
 31
0.0
  0
LINE
  5
159
330
1F
100
AcDbEntity
  8
1
  6
Continuous
 62
     7
370
     9
100
AcDbLine
 10
488.5210983750295
 20
182.6560707494445
 30
0.0
 11
488.5210983750295
 21
165.3560707494445
 31
0.0
  0
LINE
  5
15A
330
1F
100
AcDbEntity
  8
1
  6
Continuous
 62
     7
370
     9
100
AcDbLine
 10
488.8210983750297
 20
227.3560707494445
 30
0.0
 11
488.8210983750297
 21
210.6560707494446
 31
0.0
  0
LINE
  5
15B
330
1F
100
AcDbEntity
  8
1
  6
Continuous
 62
     7
370
     9
100
AcDbLine
 10
400.1219339496691
 20
210.3560707494445
 30
0.0
 11
488.5210983750295
 21
210.3560707494445
 31
0.0
  0
LINE
  5
15C
330
1F
100
AcDbEntity
  8
1
  6
Continuous
 62
     7
370
     9
100
AcDbLine
 10
399.8210983750295
 20
227.4823832494446
 30
0.0
 11
400.121933949669
 21
227.6560707494446
 31
0.0
  0
LINE
  5
15D
330
1F
100
AcDbEntity
  8
1
  6
Continuous
 62
     7
370
     9
100
AcDbLine
 10
399.8210983750296
 20
210.5297582494445
 30
0.0
 11
400.1219339496691
 21
210.3560707494445
 31
0.0
  0
LINE
  5
15E
330
1F
100
AcDbEntity
  8
1
  6
Continuous
 62
     7
370
     9
100
AcDbLine
 10
400.1219339496689
 20
227.6560707494445
 30
0.0
 11
488.5210983750295
 21
227.6560707494445
 31
0.0
  0
LINE
  5
15F
330
1F
100
AcDbEntity
  8
1
  6
Continuous
 62
     7
370
     9
100
AcDbLine
 10
388.8210983750296
 20
225.9386332494445
 30
0.0
 11
388.8210983750296
 21
212.0735082494446
 31
0.0
  0
LINE
  5
160
330
1F
100
AcDbEntity
  8
1
  6
Continuous
 62
     7
370
     9
100
AcDbLine
 10
399.8210983750295
 20
211.3857582494445
 30
0.0
 11
401.604569440948
 21
210.3560707494445
 31
0.0
  0
LINE
  5
161
330
1F
100
AcDbEntity
  8
1
  6
Continuous
 62
     7
370
     9
100
AcDbLine
 10
388.8210983750295
 20
225.9386332494445
 30
0.0
 11
390.0598080524488
 21
227.1773429268638
 31
0.0
  0
LINE
  5
162
330
1F
100
AcDbEntity
  8
1
  6
Continuous
 62
     7
370
     9
100
AcDbLine
 10
390.0598080524489
 20
210.8347985720251
 30
0.0
 11
399.8210983750296
 21
210.5297582494445
 31
0.0
  0
LINE
  5
163
330
1F
100
AcDbEntity
  8
1
  6
Continuous
 62
     7
370
     9
100
AcDbLine
 10
390.0598080524489
 20
227.1773429268638
 30
0.0
 11
390.0598080524489
 21
210.8347985720251
 31
0.0
  0
LINE
  5
164
330
1F
100
AcDbEntity
  8
1
  6
Continuous
 62
     7
370
     9
100
AcDbLine
 10
399.8210983750296
 20
227.4823832494445
 30
0.0
 11
399.8210983750296
 21
210.5297582494445
 31
0.0
  0
LINE
  5
165
330
1F
100
AcDbEntity
  8
1
  6
Continuous
 62
     7
370
     9
100
AcDbLine
 10
389.1761951492231
 20
226.2937300236381
 30
0.0
 11
399.8210983750295
 21
226.6263832494445
 31
0.0
  0
LINE
  5
166
330
1F
100
AcDbEntity
  8
1
  6
Continuous
 62
     7
370
     9
100
AcDbLine
 10
399.8210983750296
 20
226.6263832494445
 30
0.0
 11
401.6045694409482
 21
227.6560707494446
 31
0.0
  0
LINE
  5
167
330
1F
100
AcDbEntity
  8
1
  6
Continuous
 62
     7
370
     9
100
AcDbLine
 10
390.0598080524489
 20
227.1773429268639
 30
0.0
 11
399.8210983750295
 21
227.4823832494445
 31
0.0
  0
LINE
  5
168
330
1F
100
AcDbEntity
  8
1
  6
Continuous
 62
     7
370
     9
100
AcDbLine
 10
388.8210983750296
 20
212.0735082494446
 30
0.0
 11
390.0598080524489
 21
210.8347985720252
 31
0.0
  0
LINE
  5
169
330
1F
100
AcDbEntity
  8
1
  6
Continuous
 62
     7
370
     9
100
AcDbLine
 10
389.1761951492232
 20
211.718411475251
 30
0.0
 11
399.8210983750295
 21
211.3857582494446
 31
0.0
  0
LINE
  5
16A
330
1F
100
AcDbEntity
  8
1
  6
Continuous
 62
     7
370
     9
100
AcDbLine
 10
488.5210983750295
 20
227.6560707494445
 30
0.0
 11
488.8210983750295
 21
227.3560707494444
 31
0.0
  0
LINE
  5
16B
330
1F
100
AcDbEntity
  8
1
  6
Continuous
 62
     7
370
     9
100
AcDbLine
 10
488.8210983750295
 20
210.6560707494446
 30
0.0
 11
488.5210983750295
 21
210.3560707494445
 31
0.0
  0
LINE
  5
16C
330
1F
100
AcDbEntity
  8
1
  6
Continuous
 62
     7
370
     9
100
AcDbLine
 10
488.5210983750295
 20
227.6560707494445
 30
0.0
 11
488.5210983750295
 21
210.3560707494445
 31
0.0
  0
LINE
  5
16D
330
1F
100
AcDbEntity
  8
1
  6
Continuous
 62
     7
370
     9
100
AcDbLine
 10
488.8210983750297
 20
272.3560707494445
 30
0.0
 11
488.8210983750297
 21
255.6560707494445
 31
0.0
  0
LINE
  5
16E
330
1F
100
AcDbEntity
  8
1
  6
Continuous
 62
     7
370
     9
100
AcDbLine
 10
425.1219339496691
 20
255.3560707494445
 30
0.0
 11
488.5210983750295
 21
255.3560707494445
 31
0.0
  0
LINE
  5
16F
330
1F
100
AcDbEntity
  8
1
  6
Continuous
 62
     7
370
     9
100
AcDbLine
 10
424.8210983750295
 20
272.4823832494446
 30
0.0
 11
425.1219339496691
 21
272.6560707494445
 31
0.0
  0
LINE
  5
170
330
1F
100
AcDbEntity
  8
1
  6
Continuous
 62
     7
370
     9
100
AcDbLine
 10
424.8210983750296
 20
255.5297582494445
 30
0.0
 11
425.1219339496691
 21
255.3560707494445
 31
0.0
  0
LINE
  5
171
330
1F
100
AcDbEntity
  8
1
  6
Continuous
 62
     7
370
     9
100
AcDbLine
 10
425.121933949669
 20
272.6560707494445
 30
0.0
 11
488.5210983750295
 21
272.6560707494445
 31
0.0
  0
LINE
  5
172
330
1F
100
AcDbEntity
  8
1
  6
Continuous
 62
     7
370
     9
100
AcDbLine
 10
413.8210983750296
 20
270.9386332494445
 30
0.0
 11
413.8210983750296
 21
257.0735082494446
 31
0.0
  0
LINE
  5
173
330
1F
100
AcDbEntity
  8
1
  6
Continuous
 62
     7
370
     9
100
AcDbLine
 10
424.8210983750295
 20
256.3857582494445
 30
0.0
 11
426.604569440948
 21
255.3560707494445
 31
0.0
  0
LINE
  5
174
330
1F
100
AcDbEntity
  8
1
  6
Continuous
 62
     7
370
     9
100
AcDbLine
 10
413.8210983750295
 20
270.9386332494445
 30
0.0
 11
415.0598080524488
 21
272.1773429268638
 31
0.0
  0
LINE
  5
175
330
1F
100
AcDbEntity
  8
1
  6
Continuous
 62
     7
370
     9
100
AcDbLine
 10
415.059808052449
 20
255.8347985720251
 30
0.0
 11
424.8210983750296
 21
255.5297582494445
 31
0.0
  0
LINE
  5
176
330
1F
100
AcDbEntity
  8
1
  6
Continuous
 62
     7
370
     9
100
AcDbLine
 10
415.0598080524489
 20
272.1773429268639
 30
0.0
 11
415.0598080524489
 21
255.8347985720252
 31
0.0
  0
LINE
  5
177
330
1F
100
AcDbEntity
  8
1
  6
Continuous
 62
     7
370
     9
100
AcDbLine
 10
424.8210983750296
 20
272.4823832494445
 30
0.0
 11
424.8210983750296
 21
255.5297582494445
 31
0.0
  0
LINE
  5
178
330
1F
100
AcDbEntity
  8
1
  6
Continuous
 62
     7
370
     9
100
AcDbLine
 10
414.1761951492231
 20
271.293730023638
 30
0.0
 11
424.8210983750295
 21
271.6263832494445
 31
0.0
  0
LINE
  5
179
330
1F
100
AcDbEntity
  8
1
  6
Continuous
 62
     7
370
     9
100
AcDbLine
 10
424.8210983750296
 20
271.6263832494445
 30
0.0
 11
426.6045694409482
 21
272.6560707494445
 31
0.0
  0
LINE
  5
17A
330
1F
100
AcDbEntity
  8
1
  6
Continuous
 62
     7
370
     9
100
AcDbLine
 10
415.0598080524489
 20
272.1773429268639
 30
0.0
 11
424.8210983750295
 21
272.4823832494445
 31
0.0
  0
LINE
  5
17B
330
1F
100
AcDbEntity
  8
1
  6
Continuous
 62
     7
370
     9
100
AcDbLine
 10
413.8210983750296
 20
257.0735082494446
 30
0.0
 11
415.059808052449
 21
255.8347985720253
 31
0.0
  0
LINE
  5
17C
330
1F
100
AcDbEntity
  8
1
  6
Continuous
 62
     7
370
     9
100
AcDbLine
 10
414.1761951492232
 20
256.718411475251
 30
0.0
 11
424.8210983750295
 21
256.3857582494446
 31
0.0
  0
LINE
  5
17D
330
1F
100
AcDbEntity
  8
1
  6
Continuous
 62
     7
370
     9
100
AcDbLine
 10
488.5210983750295
 20
272.6560707494445
 30
0.0
 11
488.8210983750295
 21
272.3560707494444
 31
0.0
  0
LINE
  5
17E
330
1F
100
AcDbEntity
  8
1
  6
Continuous
 62
     7
370
     9
100
AcDbLine
 10
488.8210983750295
 20
255.6560707494445
 30
0.0
 11
488.5210983750295
 21
255.3560707494445
 31
0.0
  0
LINE
  5
17F
330
1F
100
AcDbEntity
  8
1
  6
Continuous
 62
     7
370
     9
100
AcDbLine
 10
488.5210983750295
 20
272.6560707494445
 30
0.0
 11
488.5210983750295
 21
255.3560707494445
 31
0.0
  0
LINE
  5
180
330
1F
100
AcDbEntity
  8
1
  6
Continuous
 62
     7
370
     9
100
AcDbLine
 10
488.8210983750297
 20
317.3560707494445
 30
0.0
 11
488.8210983750297
 21
300.6560707494445
 31
0.0
  0
LINE
  5
181
330
1F
100
AcDbEntity
  8
1
  6
Continuous
 62
     7
370
     9
100
AcDbLine
 10
450.1219339496691
 20
300.3560707494445
 30
0.0
 11
488.5210983750295
 21
300.3560707494445
 31
0.0
  0
LINE
  5
182
330
1F
100
AcDbEntity
  8
1
  6
Continuous
 62
     7
370
     9
100
AcDbLine
 10
449.8210983750295
 20
317.4823832494446
 30
0.0
 11
450.1219339496691
 21
317.6560707494445
 31
0.0
  0
LINE
  5
183
330
1F
100
AcDbEntity
  8
1
  6
Continuous
 62
     7
370
     9
100
AcDbLine
 10
449.8210983750296
 20
300.5297582494445
 30
0.0
 11
450.1219339496691
 21
300.3560707494445
 31
0.0
  0
LINE
  5
184
330
1F
100
AcDbEntity
  8
1
  6
Continuous
 62
     7
370
     9
100
AcDbLine
 10
450.121933949669
 20
317.6560707494445
 30
0.0
 11
488.5210983750295
 21
317.6560707494445
 31
0.0
  0
LINE
  5
185
330
1F
100
AcDbEntity
  8
1
  6
Continuous
 62
     7
370
     9
100
AcDbLine
 10
438.8210983750296
 20
315.9386332494445
 30
0.0
 11
438.8210983750296
 21
302.0735082494446
 31
0.0
  0
LINE
  5
186
330
1F
100
AcDbEntity
  8
1
  6
Continuous
 62
     7
370
     9
100
AcDbLine
 10
449.8210983750295
 20
301.3857582494445
 30
0.0
 11
451.604569440948
 21
300.3560707494444
 31
0.0
  0
LINE
  5
187
330
1F
100
AcDbEntity
  8
1
  6
Continuous
 62
     7
370
     9
100
AcDbLine
 10
438.8210983750295
 20
315.9386332494445
 30
0.0
 11
440.0598080524489
 21
317.1773429268638
 31
0.0
  0
LINE
  5
188
330
1F
100
AcDbEntity
  8
1
  6
Continuous
 62
     7
370
     9
100
AcDbLine
 10
440.0598080524489
 20
300.8347985720252
 30
0.0
 11
449.8210983750296
 21
300.5297582494445
 31
0.0
  0
LINE
  5
189
330
1F
100
AcDbEntity
  8
1
  6
Continuous
 62
     7
370
     9
100
AcDbLine
 10
440.0598080524489
 20
317.1773429268639
 30
0.0
 11
440.0598080524489
 21
300.8347985720252
 31
0.0
  0
LINE
  5
18A
330
1F
100
AcDbEntity
  8
1
  6
Continuous
 62
     7
370
     9
100
AcDbLine
 10
449.8210983750296
 20
317.4823832494445
 30
0.0
 11
449.8210983750296
 21
300.5297582494445
 31
0.0
  0
LINE
  5
18B
330
1F
100
AcDbEntity
  8
1
  6
Continuous
 62
     7
370
     9
100
AcDbLine
 10
439.1761951492231
 20
316.2937300236381
 30
0.0
 11
449.8210983750295
 21
316.6263832494445
 31
0.0
  0
LINE
  5
18C
330
1F
100
AcDbEntity
  8
1
  6
Continuous
 62
     7
370
     9
100
AcDbLine
 10
449.8210983750296
 20
316.6263832494444
 30
0.0
 11
451.6045694409482
 21
317.6560707494445
 31
0.0
  0
LINE
  5
18D
330
1F
100
AcDbEntity
  8
1
  6
Continuous
 62
     7
370
     9
100
AcDbLine
 10
440.0598080524489
 20
317.1773429268639
 30
0.0
 11
449.8210983750295
 21
317.4823832494445
 31
0.0
  0
LINE
  5
18E
330
1F
100
AcDbEntity
  8
1
  6
Continuous
 62
     7
370
     9
100
AcDbLine
 10
438.8210983750296
 20
302.0735082494446
 30
0.0
 11
440.0598080524491
 21
300.8347985720252
 31
0.0
  0
LINE
  5
18F
330
1F
100
AcDbEntity
  8
1
  6
Continuous
 62
     7
370
     9
100
AcDbLine
 10
439.1761951492232
 20
301.718411475251
 30
0.0
 11
449.8210983750296
 21
301.3857582494445
 31
0.0
  0
LINE
  5
190
330
1F
100
AcDbEntity
  8
1
  6
Continuous
 62
     7
370
     9
100
AcDbLine
 10
488.5210983750295
 20
317.6560707494445
 30
0.0
 11
488.8210983750295
 21
317.3560707494444
 31
0.0
  0
LINE
  5
191
330
1F
100
AcDbEntity
  8
1
  6
Continuous
 62
     7
370
     9
100
AcDbLine
 10
488.8210983750295
 20
300.6560707494445
 30
0.0
 11
488.5210983750295
 21
300.3560707494445
 31
0.0
  0
LINE
  5
192
330
1F
100
AcDbEntity
  8
1
  6
Continuous
 62
     7
370
     9
100
AcDbLine
 10
488.5210983750295
 20
317.6560707494445
 30
0.0
 11
488.5210983750295
 21
300.3560707494445
 31
0.0
  0
CIRCLE
  5
193
330
1F
100
AcDbEntity
  8
1
  6
Continuous
 62
     7
370
     9
100
AcDbCircle
 10
388.8210983750296
 20
309.0060707494445
 30
0.0
 40
8.649999999999999
  0
CIRCLE
  5
194
330
1F
100
AcDbEntity
  8
1
  6
Continuous
 62
     7
370
     9
100
AcDbCircle
 10
388.8210983750296
 20
309.0060707494445
 30
0.0
 40
8.331000000000003
  0
CIRCLE
  5
195
330
1F
100
AcDbEntity
  8
1
  6
Continuous
 62
     7
370
     9
100
AcDbCircle
 10
388.8210983750296
 20
309.0060707494445
 30
0.0
 40
7.475000000000001
  0
CIRCLE
  5
196
330
1F
100
AcDbEntity
  8
1
  6
Continuous
 62
     7
370
     9
100
AcDbCircle
 10
388.8210983750296
 20
309.0060707494445
 30
0.0
 40
6.649999999999999
  0
LINE
  5
197
330
1F
100
AcDbEntity
  8
1
  6
Continuous
 62
     7
370
     9
100
AcDbLine
 10
559.2732274072877
 20
75.53376593593646
 30
0.0
 11
572.8210983750296
 21
75.11039496819451
 31
0.0
  0
LINE
  5
198
330
1F
100
AcDbEntity
  8
1
  6
Continuous
 62
     7
370
     9
100
AcDbLine
 10
558.82109837503
 20
93.23089496819435
 30
0.0
 11
560.4727112782557
 21
94.88250787142012
 31
0.0
  0
LINE
  5
199
330
1F
100
AcDbEntity
  8
1
  6
Continuous
 62
     7
370
     9
100
AcDbLine
 10
560.4727112782556
 20
94.8825078714203
 30
0.0
 11
560.4727112782556
 21
74.33428206496869
 31
0.0
  0
LINE
  5
19A
330
1F
100
AcDbEntity
  8
1
  6
Continuous
 62
     7
370
     9
100
AcDbLine
 10
560.4727112782555
 20
74.3342820649687
 30
0.0
 11
572.8210983750299
 21
73.9483949681945
 31
0.0
  0
LINE
  5
19B
330
1F
100
AcDbEntity
  8
1
  6
Continuous
 62
     7
370
     9
100
AcDbLine
 10
560.4727112782555
 20
94.8825078714203
 30
0.0
 11
572.8210983750299
 21
95.26839496819451
 31
0.0
  0
LINE
  5
19C
330
1F
100
AcDbEntity
  8
1
  6
Continuous
 62
     7
370
     9
100
AcDbLine
 10
572.8210983750297
 20
94.10639496819455
 30
0.0
 11
575.1628310668627
 21
95.45839496819447
 31
0.0
  0
LINE
  5
19D
330
1F
100
AcDbEntity
  8
1
  6
Continuous
 62
     7
370
     9
100
AcDbLine
 10
559.2732274072879
 20
93.68302400045252
 30
0.0
 11
572.8210983750298
 21
94.10639496819448
 31
0.0
  0
LINE
  5
19E
330
1F
100
AcDbEntity
  8
1
  6
Continuous
 62
     7
370
     9
100
AcDbLine
 10
572.8210983750299
 20
95.2683949681945
 30
0.0
 11
572.8210983750299
 21
73.94839496819449
 31
0.0
  0
LINE
  5
19F
330
1F
100
AcDbEntity
  8
1
  6
Continuous
 62
     7
370
     9
100
AcDbLine
 10
572.8210983750298
 20
75.11039496819434
 30
0.0
 11
575.1628310668627
 21
73.75839496819442
 31
0.0
  0
LINE
  5
1A0
330
1F
100
AcDbEntity
  8
1
  6
Continuous
 62
     7
370
     9
100
AcDbLine
 10
558.8210983750299
 20
75.98589496819447
 30
0.0
 11
560.4727112782558
 21
74.33428206496862
 31
0.0
  0
LINE
  5
1A1
330
1F
100
AcDbEntity
  8
1
  6
Continuous
 62
     7
370
     9
100
AcDbLine
 10
558.8210983750297
 20
93.2308949681945
 30
0.0
 11
558.8210983750297
 21
75.98589496819451
 31
0.0
  0
LINE
  5
1A2
330
1F
100
AcDbEntity
  8
1
  6
Continuous
 62
     7
370
     9
100
AcDbLine
 10
573.1501880284679
 20
95.45839496819448
 30
0.0
 11
758.5210983750296
 21
95.45839496819448
 31
0.0
  0
LINE
  5
1A3
330
1F
100
AcDbEntity
  8
1
  6
Continuous
 62
     7
370
     9
100
AcDbLine
 10
572.82109837503
 20
95.26839496819466
 30
0.0
 11
573.1501880284679
 21
95.4583949681946
 31
0.0
  0
LINE
  5
1A4
330
1F
100
AcDbEntity
  8
1
  6
Continuous
 62
     7
370
     9
100
AcDbLine
 10
572.82109837503
 20
73.94839496819444
 30
0.0
 11
573.1501880284679
 21
73.7583949681945
 31
0.0
  0
LINE
  5
1A5
330
1F
100
AcDbEntity
  8
1
  6
Continuous
 62
     7
370
     9
100
AcDbLine
 10
758.8210983750297
 20
95.1583949681945
 30
0.0
 11
758.8210983750297
 21
74.05839496819449
 31
0.0
  0
LINE
  5
1A6
330
1F
100
AcDbEntity
  8
1
  6
DASHDOT
 62
     7
370
     9
100
AcDbLine
 10
762.8210983750297
 20
84.60839496819449
 30
0.0
 11
554.8210983750297
 21
84.60839496819449
 31
0.0
  0
LINE
  5
1A7
330
1F
100
AcDbEntity
  8
1
  6
Continuous
 62
     7
370
     9
100
AcDbLine
 10
758.5210983750296
 20
73.7583949681945
 30
0.0
 11
573.150188028468
 21
73.7583949681945
 31
0.0
  0
LINE
  5
1A8
330
1F
100
AcDbEntity
  8
1
  6
Continuous
 62
     7
370
     9
100
AcDbLine
 10
758.5210983750296
 20
95.45839496819448
 30
0.0
 11
758.5210983750296
 21
73.7583949681945
 31
0.0
  0
LINE
  5
1A9
330
1F
100
AcDbEntity
  8
1
  6
Continuous
 62
     7
370
     9
100
AcDbLine
 10
758.5210983750299
 20
95.45839496819465
 30
0.0
 11
758.8210983750299
 21
95.15839496819467
 31
0.0
  0
LINE
  5
1AA
330
1F
100
AcDbEntity
  8
1
  6
Continuous
 62
     7
370
     9
100
AcDbLine
 10
758.8210983750296
 20
74.05839496819453
 30
0.0
 11
758.5210983750296
 21
73.75839496819452
 31
0.0
  0
LINE
  5
1AB
330
1F
100
AcDbEntity
  8
1
  6
PHANTOM
 62
     7
370
     9
100
AcDbLine
 10
566.9810983750297
 20
95.08589496819451
 30
0.0
 11
566.9810983750297
 21
74.13089496819451
 31
0.0
  0
LINE
  5
1AC
330
1F
100
AcDbEntity
  8
1
  6
Continuous
 62
     7
370
     9
100
AcDbLine
 10
758.5210983750296
 20
123.7583949681945
 30
0.0
 11
623.1501880284679
 21
123.7583949681945
 31
0.0
  0
LINE
  5
1AD
330
1F
100
AcDbEntity
  8
1
  6
Continuous
 62
     7
370
     9
100
AcDbLine
 10
758.8210983750297
 20
145.1583949681945
 30
0.0
 11
758.8210983750297
 21
124.0583949681945
 31
0.0
  0
LINE
  5
1AE
330
1F
100
AcDbEntity
  8
1
  6
Continuous
 62
     7
370
     9
100
AcDbLine
 10
622.82109837503
 20
123.9483949681944
 30
0.0
 11
623.1501880284679
 21
123.7583949681945
 31
0.0
  0
LINE
  5
1AF
330
1F
100
AcDbEntity
  8
1
  6
Continuous
 62
     7
370
     9
100
AcDbLine
 10
622.82109837503
 20
145.2683949681947
 30
0.0
 11
623.1501880284679
 21
145.4583949681946
 31
0.0
  0
LINE
  5
1B0
330
1F
100
AcDbEntity
  8
1
  6
Continuous
 62
     7
370
     9
100
AcDbLine
 10
623.1501880284678
 20
145.4583949681945
 30
0.0
 11
758.5210983750296
 21
145.4583949681945
 31
0.0
  0
LINE
  5
1B1
330
1F
100
AcDbEntity
  8
1
  6
Continuous
 62
     7
370
     9
100
AcDbLine
 10
608.8210983750297
 20
143.2308949681945
 30
0.0
 11
608.8210983750297
 21
125.9858949681945
 31
0.0
  0
LINE
  5
1B2
330
1F
100
AcDbEntity
  8
1
  6
Continuous
 62
     7
370
     9
100
AcDbLine
 10
608.8210983750299
 20
125.9858949681945
 30
0.0
 11
610.4727112782558
 21
124.3342820649686
 31
0.0
  0
LINE
  5
1B3
330
1F
100
AcDbEntity
  8
1
  6
Continuous
 62
     7
370
     9
100
AcDbLine
 10
622.8210983750298
 20
125.1103949681944
 30
0.0
 11
625.1628310668627
 21
123.7583949681944
 31
0.0
  0
LINE
  5
1B4
330
1F
100
AcDbEntity
  8
1
  6
Continuous
 62
     7
370
     9
100
AcDbLine
 10
622.8210983750299
 20
145.2683949681945
 30
0.0
 11
622.8210983750299
 21
123.9483949681945
 31
0.0
  0
LINE
  5
1B5
330
1F
100
AcDbEntity
  8
1
  6
Continuous
 62
     7
370
     9
100
AcDbLine
 10
609.2732274072879
 20
143.6830240004525
 30
0.0
 11
622.8210983750298
 21
144.1063949681945
 31
0.0
  0
LINE
  5
1B6
330
1F
100
AcDbEntity
  8
1
  6
Continuous
 62
     7
370
     9
100
AcDbLine
 10
622.8210983750297
 20
144.1063949681945
 30
0.0
 11
625.1628310668627
 21
145.4583949681945
 31
0.0
  0
LINE
  5
1B7
330
1F
100
AcDbEntity
  8
1
  6
Continuous
 62
     7
370
     9
100
AcDbLine
 10
610.4727112782555
 20
144.8825078714203
 30
0.0
 11
622.8210983750299
 21
145.2683949681945
 31
0.0
  0
LINE
  5
1B8
330
1F
100
AcDbEntity
  8
1
  6
Continuous
 62
     7
370
     9
100
AcDbLine
 10
610.4727112782555
 20
124.3342820649687
 30
0.0
 11
622.8210983750299
 21
123.9483949681945
 31
0.0
  0
LINE
  5
1B9
330
1F
100
AcDbEntity
  8
1
  6
Continuous
 62
     7
370
     9
100
AcDbLine
 10
610.4727112782556
 20
144.8825078714203
 30
0.0
 11
610.4727112782556
 21
124.3342820649687
 31
0.0
  0
LINE
  5
1BA
330
1F
100
AcDbEntity
  8
1
  6
Continuous
 62
     7
370
     9
100
AcDbLine
 10
608.82109837503
 20
143.2308949681943
 30
0.0
 11
610.4727112782558
 21
144.8825078714201
 31
0.0
  0
LINE
  5
1BB
330
1F
100
AcDbEntity
  8
1
  6
Continuous
 62
     7
370
     9
100
AcDbLine
 10
609.2732274072877
 20
125.5337659359365
 30
0.0
 11
622.8210983750296
 21
125.1103949681945
 31
0.0
  0
LINE
  5
1BC
330
1F
100
AcDbEntity
  8
1
  6
Continuous
 62
     7
370
     9
100
AcDbLine
 10
758.5210983750296
 20
145.4583949681945
 30
0.0
 11
758.5210983750296
 21
123.7583949681945
 31
0.0
  0
LINE
  5
1BD
330
1F
100
AcDbEntity
  8
1
  6
Continuous
 62
     7
370
     9
100
AcDbLine
 10
758.5210983750299
 20
145.4583949681947
 30
0.0
 11
758.8210983750299
 21
145.1583949681947
 31
0.0
  0
LINE
  5
1BE
330
1F
100
AcDbEntity
  8
1
  6
Continuous
 62
     7
370
     9
100
AcDbLine
 10
758.8210983750296
 20
124.0583949681946
 30
0.0
 11
758.5210983750296
 21
123.7583949681946
 31
0.0
  0
LINE
  5
1BF
330
1F
100
AcDbEntity
  8
1
  6
Continuous
 62
     7
370
     9
100
AcDbLine
 10
758.5210983750296
 20
173.7583949681945
 30
0.0
 11
648.1501880284679
 21
173.7583949681945
 31
0.0
  0
LINE
  5
1C0
330
1F
100
AcDbEntity
  8
1
  6
Continuous
 62
     7
370
     9
100
AcDbLine
 10
758.8210983750297
 20
195.1583949681945
 30
0.0
 11
758.8210983750297
 21
174.0583949681945
 31
0.0
  0
LINE
  5
1C1
330
1F
100
AcDbEntity
  8
1
  6
Continuous
 62
     7
370
     9
100
AcDbLine
 10
647.82109837503
 20
173.9483949681944
 30
0.0
 11
648.1501880284679
 21
173.7583949681945
 31
0.0
  0
LINE
  5
1C2
330
1F
100
AcDbEntity
  8
1
  6
Continuous
 62
     7
370
     9
100
AcDbLine
 10
647.82109837503
 20
195.2683949681946
 30
0.0
 11
648.1501880284679
 21
195.4583949681946
 31
0.0
  0
LINE
  5
1C3
330
1F
100
AcDbEntity
  8
1
  6
Continuous
 62
     7
370
     9
100
AcDbLine
 10
648.1501880284678
 20
195.4583949681945
 30
0.0
 11
758.5210983750296
 21
195.4583949681945
 31
0.0
  0
LINE
  5
1C4
330
1F
100
AcDbEntity
  8
1
  6
Continuous
 62
     7
370
     9
100
AcDbLine
 10
633.8210983750297
 20
193.2308949681945
 30
0.0
 11
633.8210983750297
 21
175.9858949681945
 31
0.0
  0
LINE
  5
1C5
330
1F
100
AcDbEntity
  8
1
  6
Continuous
 62
     7
370
     9
100
AcDbLine
 10
633.8210983750299
 20
175.9858949681945
 30
0.0
 11
635.4727112782558
 21
174.3342820649686
 31
0.0
  0
LINE
  5
1C6
330
1F
100
AcDbEntity
  8
1
  6
Continuous
 62
     7
370
     9
100
AcDbLine
 10
647.8210983750298
 20
175.1103949681943
 30
0.0
 11
650.1628310668627
 21
173.7583949681944
 31
0.0
  0
LINE
  5
1C7
330
1F
100
AcDbEntity
  8
1
  6
Continuous
 62
     7
370
     9
100
AcDbLine
 10
647.8210983750299
 20
195.2683949681945
 30
0.0
 11
647.8210983750299
 21
173.9483949681945
 31
0.0
  0
LINE
  5
1C8
330
1F
100
AcDbEntity
  8
1
  6
Continuous
 62
     7
370
     9
100
AcDbLine
 10
634.2732274072879
 20
193.6830240004525
 30
0.0
 11
647.8210983750298
 21
194.1063949681945
 31
0.0
  0
LINE
  5
1C9
330
1F
100
AcDbEntity
  8
1
  6
Continuous
 62
     7
370
     9
100
AcDbLine
 10
647.8210983750297
 20
194.1063949681945
 30
0.0
 11
650.1628310668627
 21
195.4583949681945
 31
0.0
  0
LINE
  5
1CA
330
1F
100
AcDbEntity
  8
1
  6
Continuous
 62
     7
370
     9
100
AcDbLine
 10
635.4727112782555
 20
194.8825078714203
 30
0.0
 11
647.8210983750299
 21
195.2683949681945
 31
0.0
  0
LINE
  5
1CB
330
1F
100
AcDbEntity
  8
1
  6
Continuous
 62
     7
370
     9
100
AcDbLine
 10
635.4727112782555
 20
174.3342820649687
 30
0.0
 11
647.8210983750299
 21
173.9483949681945
 31
0.0
  0
LINE
  5
1CC
330
1F
100
AcDbEntity
  8
1
  6
Continuous
 62
     7
370
     9
100
AcDbLine
 10
635.4727112782556
 20
194.8825078714203
 30
0.0
 11
635.4727112782556
 21
174.3342820649687
 31
0.0
  0
LINE
  5
1CD
330
1F
100
AcDbEntity
  8
1
  6
Continuous
 62
     7
370
     9
100
AcDbLine
 10
633.82109837503
 20
193.2308949681944
 30
0.0
 11
635.4727112782558
 21
194.8825078714202
 31
0.0
  0
LINE
  5
1CE
330
1F
100
AcDbEntity
  8
1
  6
Continuous
 62
     7
370
     9
100
AcDbLine
 10
634.2732274072877
 20
175.5337659359365
 30
0.0
 11
647.8210983750296
 21
175.1103949681945
 31
0.0
  0
LINE
  5
1CF
330
1F
100
AcDbEntity
  8
1
  6
Continuous
 62
     7
370
     9
100
AcDbLine
 10
758.5210983750296
 20
195.4583949681945
 30
0.0
 11
758.5210983750296
 21
173.7583949681945
 31
0.0
  0
LINE
  5
1D0
330
1F
100
AcDbEntity
  8
1
  6
Continuous
 62
     7
370
     9
100
AcDbLine
 10
758.5210983750299
 20
195.4583949681947
 30
0.0
 11
758.8210983750299
 21
195.1583949681948
 31
0.0
  0
LINE
  5
1D1
330
1F
100
AcDbEntity
  8
1
  6
Continuous
 62
     7
370
     9
100
AcDbLine
 10
758.8210983750296
 20
174.0583949681946
 30
0.0
 11
758.5210983750296
 21
173.7583949681946
 31
0.0
  0
LINE
  5
1D2
330
1F
100
AcDbEntity
  8
1
  6
Continuous
 62
     7
370
     9
100
AcDbLine
 10
758.5210983750296
 20
223.7583949681945
 30
0.0
 11
673.1501880284679
 21
223.7583949681945
 31
0.0
  0
LINE
  5
1D3
330
1F
100
AcDbEntity
  8
1
  6
Continuous
 62
     7
370
     9
100
AcDbLine
 10
758.8210983750297
 20
245.1583949681945
 30
0.0
 11
758.8210983750297
 21
224.0583949681945
 31
0.0
  0
LINE
  5
1D4
330
1F
100
AcDbEntity
  8
1
  6
Continuous
 62
     7
370
     9
100
AcDbLine
 10
672.82109837503
 20
223.9483949681944
 30
0.0
 11
673.1501880284679
 21
223.7583949681945
 31
0.0
  0
LINE
  5
1D5
330
1F
100
AcDbEntity
  8
1
  6
Continuous
 62
     7
370
     9
100
AcDbLine
 10
672.82109837503
 20
245.2683949681946
 30
0.0
 11
673.1501880284679
 21
245.4583949681946
 31
0.0
  0
LINE
  5
1D6
330
1F
100
AcDbEntity
  8
1
  6
Continuous
 62
     7
370
     9
100
AcDbLine
 10
673.1501880284678
 20
245.4583949681945
 30
0.0
 11
758.5210983750296
 21
245.4583949681945
 31
0.0
  0
LINE
  5
1D7
330
1F
100
AcDbEntity
  8
1
  6
Continuous
 62
     7
370
     9
100
AcDbLine
 10
658.8210983750297
 20
243.2308949681945
 30
0.0
 11
658.8210983750297
 21
225.9858949681945
 31
0.0
  0
LINE
  5
1D8
330
1F
100
AcDbEntity
  8
1
  6
Continuous
 62
     7
370
     9
100
AcDbLine
 10
658.8210983750299
 20
225.9858949681945
 30
0.0
 11
660.4727112782558
 21
224.3342820649686
 31
0.0
  0
LINE
  5
1D9
330
1F
100
AcDbEntity
  8
1
  6
Continuous
 62
     7
370
     9
100
AcDbLine
 10
672.8210983750298
 20
225.1103949681943
 30
0.0
 11
675.1628310668627
 21
223.7583949681944
 31
0.0
  0
LINE
  5
1DA
330
1F
100
AcDbEntity
  8
1
  6
Continuous
 62
     7
370
     9
100
AcDbLine
 10
672.8210983750299
 20
245.2683949681945
 30
0.0
 11
672.8210983750299
 21
223.9483949681945
 31
0.0
  0
LINE
  5
1DB
330
1F
100
AcDbEntity
  8
1
  6
Continuous
 62
     7
370
     9
100
AcDbLine
 10
659.2732274072879
 20
243.6830240004525
 30
0.0
 11
672.8210983750298
 21
244.1063949681945
 31
0.0
  0
LINE
  5
1DC
330
1F
100
AcDbEntity
  8
1
  6
Continuous
 62
     7
370
     9
100
AcDbLine
 10
672.8210983750297
 20
244.1063949681945
 30
0.0
 11
675.1628310668627
 21
245.4583949681945
 31
0.0
  0
LINE
  5
1DD
330
1F
100
AcDbEntity
  8
1
  6
Continuous
 62
     7
370
     9
100
AcDbLine
 10
660.4727112782555
 20
244.8825078714203
 30
0.0
 11
672.8210983750299
 21
245.2683949681946
 31
0.0
  0
LINE
  5
1DE
330
1F
100
AcDbEntity
  8
1
  6
Continuous
 62
     7
370
     9
100
AcDbLine
 10
660.4727112782555
 20
224.3342820649687
 30
0.0
 11
672.8210983750299
 21
223.9483949681945
 31
0.0
  0
LINE
  5
1DF
330
1F
100
AcDbEntity
  8
1
  6
Continuous
 62
     7
370
     9
100
AcDbLine
 10
660.4727112782556
 20
244.8825078714203
 30
0.0
 11
660.4727112782556
 21
224.3342820649687
 31
0.0
  0
LINE
  5
1E0
330
1F
100
AcDbEntity
  8
1
  6
Continuous
 62
     7
370
     9
100
AcDbLine
 10
658.82109837503
 20
243.2308949681944
 30
0.0
 11
660.4727112782558
 21
244.8825078714202
 31
0.0
  0
LINE
  5
1E1
330
1F
100
AcDbEntity
  8
1
  6
Continuous
 62
     7
370
     9
100
AcDbLine
 10
659.2732274072877
 20
225.5337659359365
 30
0.0
 11
672.8210983750296
 21
225.1103949681945
 31
0.0
  0
LINE
  5
1E2
330
1F
100
AcDbEntity
  8
1
  6
Continuous
 62
     7
370
     9
100
AcDbLine
 10
758.5210983750296
 20
245.4583949681945
 30
0.0
 11
758.5210983750296
 21
223.7583949681945
 31
0.0
  0
LINE
  5
1E3
330
1F
100
AcDbEntity
  8
1
  6
Continuous
 62
     7
370
     9
100
AcDbLine
 10
758.5210983750299
 20
245.4583949681948
 30
0.0
 11
758.8210983750299
 21
245.1583949681948
 31
0.0
  0
LINE
  5
1E4
330
1F
100
AcDbEntity
  8
1
  6
Continuous
 62
     7
370
     9
100
AcDbLine
 10
758.8210983750297
 20
224.0583949681945
 30
0.0
 11
758.5210983750296
 21
223.7583949681945
 31
0.0
  0
LINE
  5
1E5
330
1F
100
AcDbEntity
  8
1
  6
Continuous
 62
     7
370
     9
100
AcDbLine
 10
758.5210983750296
 20
273.7583949681945
 30
0.0
 11
698.1501880284679
 21
273.7583949681945
 31
0.0
  0
LINE
  5
1E6
330
1F
100
AcDbEntity
  8
1
  6
Continuous
 62
     7
370
     9
100
AcDbLine
 10
758.8210983750297
 20
295.1583949681945
 30
0.0
 11
758.8210983750297
 21
274.0583949681945
 31
0.0
  0
LINE
  5
1E7
330
1F
100
AcDbEntity
  8
1
  6
Continuous
 62
     7
370
     9
100
AcDbLine
 10
697.8210983750299
 20
273.9483949681944
 30
0.0
 11
698.1501880284679
 21
273.7583949681945
 31
0.0
  0
LINE
  5
1E8
330
1F
100
AcDbEntity
  8
1
  6
Continuous
 62
     7
370
     9
100
AcDbLine
 10
697.8210983750299
 20
295.2683949681946
 30
0.0
 11
698.1501880284679
 21
295.4583949681946
 31
0.0
  0
LINE
  5
1E9
330
1F
100
AcDbEntity
  8
1
  6
Continuous
 62
     7
370
     9
100
AcDbLine
 10
698.1501880284678
 20
295.4583949681945
 30
0.0
 11
758.5210983750296
 21
295.4583949681945
 31
0.0
  0
LINE
  5
1EA
330
1F
100
AcDbEntity
  8
1
  6
Continuous
 62
     7
370
     9
100
AcDbLine
 10
683.8210983750297
 20
293.2308949681945
 30
0.0
 11
683.8210983750297
 21
275.9858949681945
 31
0.0
  0
LINE
  5
1EB
330
1F
100
AcDbEntity
  8
1
  6
Continuous
 62
     7
370
     9
100
AcDbLine
 10
683.8210983750299
 20
275.9858949681945
 30
0.0
 11
685.4727112782557
 21
274.3342820649686
 31
0.0
  0
LINE
  5
1EC
330
1F
100
AcDbEntity
  8
1
  6
Continuous
 62
     7
370
     9
100
AcDbLine
 10
697.8210983750298
 20
275.1103949681943
 30
0.0
 11
700.1628310668627
 21
273.7583949681944
 31
0.0
  0
LINE
  5
1ED
330
1F
100
AcDbEntity
  8
1
  6
Continuous
 62
     7
370
     9
100
AcDbLine
 10
697.8210983750298
 20
295.2683949681945
 30
0.0
 11
697.8210983750298
 21
273.9483949681945
 31
0.0
  0
LINE
  5
1EE
330
1F
100
AcDbEntity
  8
1
  6
Continuous
 62
     7
370
     9
100
AcDbLine
 10
684.2732274072879
 20
293.6830240004526
 30
0.0
 11
697.8210983750298
 21
294.1063949681945
 31
0.0
  0
LINE
  5
1EF
330
1F
100
AcDbEntity
  8
1
  6
Continuous
 62
     7
370
     9
100
AcDbLine
 10
697.8210983750298
 20
294.1063949681946
 30
0.0
 11
700.1628310668626
 21
295.4583949681945
 31
0.0
  0
LINE
  5
1F0
330
1F
100
AcDbEntity
  8
1
  6
Continuous
 62
     7
370
     9
100
AcDbLine
 10
685.4727112782555
 20
294.8825078714203
 30
0.0
 11
697.8210983750298
 21
295.2683949681945
 31
0.0
  0
LINE
  5
1F1
330
1F
100
AcDbEntity
  8
1
  6
Continuous
 62
     7
370
     9
100
AcDbLine
 10
685.4727112782555
 20
274.3342820649686
 30
0.0
 11
697.8210983750299
 21
273.9483949681945
 31
0.0
  0
LINE
  5
1F2
330
1F
100
AcDbEntity
  8
1
  6
Continuous
 62
     7
370
     9
100
AcDbLine
 10
685.4727112782556
 20
294.8825078714203
 30
0.0
 11
685.4727112782556
 21
274.3342820649686
 31
0.0
  0
LINE
  5
1F3
330
1F
100
AcDbEntity
  8
1
  6
Continuous
 62
     7
370
     9
100
AcDbLine
 10
683.8210983750299
 20
293.2308949681944
 30
0.0
 11
685.4727112782557
 21
294.8825078714202
 31
0.0
  0
LINE
  5
1F4
330
1F
100
AcDbEntity
  8
1
  6
Continuous
 62
     7
370
     9
100
AcDbLine
 10
684.2732274072877
 20
275.5337659359365
 30
0.0
 11
697.8210983750296
 21
275.1103949681946
 31
0.0
  0
LINE
  5
1F5
330
1F
100
AcDbEntity
  8
1
  6
Continuous
 62
     7
370
     9
100
AcDbLine
 10
758.5210983750296
 20
295.4583949681945
 30
0.0
 11
758.5210983750296
 21
273.7583949681945
 31
0.0
  0
LINE
  5
1F6
330
1F
100
AcDbEntity
  8
1
  6
Continuous
 62
     7
370
     9
100
AcDbLine
 10
758.5210983750299
 20
295.4583949681948
 30
0.0
 11
758.8210983750299
 21
295.1583949681949
 31
0.0
  0
LINE
  5
1F7
330
1F
100
AcDbEntity
  8
1
  6
Continuous
 62
     7
370
     9
100
AcDbLine
 10
758.8210983750297
 20
274.0583949681946
 30
0.0
 11
758.5210983750296
 21
273.7583949681945
 31
0.0
  0
LINE
  5
1F8
330
1F
100
AcDbEntity
  8
1
  6
Continuous
 62
     7
370
     9
100
AcDbLine
 10
758.5210983750296
 20
323.7583949681945
 30
0.0
 11
723.1501880284678
 21
323.7583949681945
 31
0.0
  0
LINE
  5
1F9
330
1F
100
AcDbEntity
  8
1
  6
Continuous
 62
     7
370
     9
100
AcDbLine
 10
758.8210983750297
 20
345.1583949681945
 30
0.0
 11
758.8210983750297
 21
324.0583949681945
 31
0.0
  0
LINE
  5
1FA
330
1F
100
AcDbEntity
  8
1
  6
Continuous
 62
     7
370
     9
100
AcDbLine
 10
722.82109837503
 20
323.9483949681944
 30
0.0
 11
723.1501880284679
 21
323.7583949681944
 31
0.0
  0
LINE
  5
1FB
330
1F
100
AcDbEntity
  8
1
  6
Continuous
 62
     7
370
     9
100
AcDbLine
 10
722.82109837503
 20
345.2683949681947
 30
0.0
 11
723.1501880284679
 21
345.4583949681946
 31
0.0
  0
LINE
  5
1FC
330
1F
100
AcDbEntity
  8
1
  6
Continuous
 62
     7
370
     9
100
AcDbLine
 10
723.1501880284677
 20
345.4583949681945
 30
0.0
 11
758.5210983750296
 21
345.4583949681945
 31
0.0
  0
LINE
  5
1FD
330
1F
100
AcDbEntity
  8
1
  6
Continuous
 62
     7
370
     9
100
AcDbLine
 10
708.8210983750297
 20
343.2308949681945
 30
0.0
 11
708.8210983750297
 21
325.9858949681945
 31
0.0
  0
LINE
  5
1FE
330
1F
100
AcDbEntity
  8
1
  6
Continuous
 62
     7
370
     9
100
AcDbLine
 10
708.82109837503
 20
325.9858949681945
 30
0.0
 11
710.4727112782559
 21
324.3342820649686
 31
0.0
  0
LINE
  5
1FF
330
1F
100
AcDbEntity
  8
1
  6
Continuous
 62
     7
370
     9
100
AcDbLine
 10
722.8210983750298
 20
325.1103949681943
 30
0.0
 11
725.1628310668627
 21
323.7583949681944
 31
0.0
  0
LINE
  5
200
330
1F
100
AcDbEntity
  8
1
  6
Continuous
 62
     7
370
     9
100
AcDbLine
 10
722.8210983750298
 20
345.2683949681945
 30
0.0
 11
722.8210983750298
 21
323.9483949681945
 31
0.0
  0
LINE
  5
201
330
1F
100
AcDbEntity
  8
1
  6
Continuous
 62
     7
370
     9
100
AcDbLine
 10
709.2732274072879
 20
343.6830240004526
 30
0.0
 11
722.8210983750298
 21
344.1063949681945
 31
0.0
  0
LINE
  5
202
330
1F
100
AcDbEntity
  8
1
  6
Continuous
 62
     7
370
     9
100
AcDbLine
 10
722.8210983750298
 20
344.1063949681945
 30
0.0
 11
725.1628310668626
 21
345.4583949681944
 31
0.0
  0
LINE
  5
203
330
1F
100
AcDbEntity
  8
1
  6
Continuous
 62
     7
370
     9
100
AcDbLine
 10
710.4727112782555
 20
344.8825078714203
 30
0.0
 11
722.8210983750298
 21
345.2683949681945
 31
0.0
  0
LINE
  5
204
330
1F
100
AcDbEntity
  8
1
  6
Continuous
 62
     7
370
     9
100
AcDbLine
 10
710.4727112782555
 20
324.3342820649686
 30
0.0
 11
722.8210983750298
 21
323.9483949681945
 31
0.0
  0
LINE
  5
205
330
1F
100
AcDbEntity
  8
1
  6
Continuous
 62
     7
370
     9
100
AcDbLine
 10
710.4727112782556
 20
344.8825078714203
 30
0.0
 11
710.4727112782556
 21
324.3342820649686
 31
0.0
  0
LINE
  5
206
330
1F
100
AcDbEntity
  8
1
  6
Continuous
 62
     7
370
     9
100
AcDbLine
 10
708.82109837503
 20
343.2308949681945
 30
0.0
 11
710.4727112782557
 21
344.8825078714202
 31
0.0
  0
LINE
  5
207
330
1F
100
AcDbEntity
  8
1
  6
Continuous
 62
     7
370
     9
100
AcDbLine
 10
709.2732274072877
 20
325.5337659359365
 30
0.0
 11
722.8210983750296
 21
325.1103949681946
 31
0.0
  0
LINE
  5
208
330
1F
100
AcDbEntity
  8
1
  6
Continuous
 62
     7
370
     9
100
AcDbLine
 10
758.5210983750296
 20
345.4583949681945
 30
0.0
 11
758.5210983750296
 21
323.7583949681945
 31
0.0
  0
LINE
  5
209
330
1F
100
AcDbEntity
  8
1
  6
Continuous
 62
     7
370
     9
100
AcDbLine
 10
758.52109837503
 20
345.4583949681949
 30
0.0
 11
758.82109837503
 21
345.1583949681949
 31
0.0
  0
LINE
  5
20A
330
1F
100
AcDbEntity
  8
1
  6
Continuous
 62
     7
370
     9
100
AcDbLine
 10
758.8210983750297
 20
324.0583949681946
 30
0.0
 11
758.5210983750296
 21
323.7583949681946
 31
0.0
  0
CIRCLE
  5
20B
330
1F
100
AcDbEntity
  8
1
  6
Continuous
 62
     7
370
     9
100
AcDbCircle
 10
658.8210983750297
 20
334.6083949681945
 30
0.0
 40
10.85
  0
CIRCLE
  5
20C
330
1F
100
AcDbEntity
  8
1
  6
Continuous
 62
     7
370
     9
100
AcDbCircle
 10
658.8210983750297
 20
334.6083949681945
 30
0.0
 40
10.4775
  0
CIRCLE
  5
20D
330
1F
100
AcDbEntity
  8
1
  6
Continuous
 62
     7
370
     9
100
AcDbCircle
 10
658.8210983750297
 20
334.6083949681945
 30
0.0
 40
9.3155
  0
CIRCLE
  5
20E
330
1F
100
AcDbEntity
  8
1
  6
Continuous
 62
     7
370
     9
100
AcDbCircle
 10
658.8210983750297
 20
334.6083949681945
 30
0.0
 40
7.850000000000001
  0
LINE
  5
20F
330
1F
100
AcDbEntity
  8
1
  6
Continuous
 62
     7
370
     9
100
AcDbLine
 10
843.8210983750299
 20
76.32893793694434
 30
0.0
 11
846.1949822599782
 21
74.95837543694451
 31
0.0
  0
LINE
  5
210
330
1F
100
AcDbEntity
  8
1
  6
Continuous
 62
     7
370
     9
100
AcDbLine
 10
828.8210983750296
 20
77.23568793694436
 30
0.0
 11
830.4727112782555
 21
75.58407503371852
 31
0.0
  0
LINE
  5
211
330
1F
100
AcDbEntity
  8
1
  6
Continuous
 62
     7
370
     9
100
AcDbLine
 10
829.2732274072879
 20
76.78355890468646
 30
0.0
 11
843.8210983750299
 21
76.32893793694451
 31
0.0
  0
LINE
  5
212
330
1F
100
AcDbEntity
  8
1
  6
Continuous
 62
     7
370
     9
100
AcDbLine
 10
830.4727112782555
 20
101.5326758401703
 30
0.0
 11
843.8210983750298
 21
101.9498129369445
 31
0.0
  0
LINE
  5
213
330
1F
100
AcDbEntity
  8
1
  6
Continuous
 62
     7
370
     9
100
AcDbLine
 10
843.8210983750298
 20
100.7878129369447
 30
0.0
 11
846.1949822599781
 21
102.1583754369445
 31
0.0
  0
LINE
  5
214
330
1F
100
AcDbEntity
  8
1
  6
Continuous
 62
     7
370
     9
100
AcDbLine
 10
829.2732274072879
 20
100.3331919692026
 30
0.0
 11
843.82109837503
 21
100.7878129369445
 31
0.0
  0
LINE
  5
215
330
1F
100
AcDbEntity
  8
1
  6
Continuous
 62
     7
370
     9
100
AcDbLine
 10
843.8210983750298
 20
101.9498129369445
 30
0.0
 11
843.8210983750298
 21
75.16693793694448
 31
0.0
  0
LINE
  5
216
330
1F
100
AcDbEntity
  8
1
  6
Continuous
 62
     7
370
     9
100
AcDbLine
 10
828.8210983750296
 20
99.88106293694482
 30
0.0
 11
830.4727112782554
 21
101.5326758401706
 31
0.0
  0
LINE
  5
217
330
1F
100
AcDbEntity
  8
1
  6
Continuous
 62
     7
370
     9
100
AcDbLine
 10
828.8210983750298
 20
99.8810629369445
 30
0.0
 11
828.8210983750298
 21
77.23568793694443
 31
0.0
  0
LINE
  5
218
330
1F
100
AcDbEntity
  8
1
  6
Continuous
 62
     7
370
     9
100
AcDbLine
 10
830.4727112782555
 20
101.5326758401703
 30
0.0
 11
830.4727112782555
 21
75.58407503371869
 31
0.0
  0
LINE
  5
219
330
1F
100
AcDbEntity
  8
1
  6
Continuous
 62
     7
370
     9
100
AcDbLine
 10
830.4727112782557
 20
75.58407503371869
 30
0.0
 11
843.8210983750299
 21
75.16693793694448
 31
0.0
  0
LINE
  5
21A
330
1F
100
AcDbEntity
  8
1
  6
Continuous
 62
     7
370
     9
100
AcDbLine
 10
843.8210983750297
 20
75.16693793694452
 30
0.0
 11
844.1823392215832
 21
74.95837543694455
 31
0.0
  0
LINE
  5
21B
330
1F
100
AcDbEntity
  8
1
  6
Continuous
 62
     7
370
     9
100
AcDbLine
 10
843.8210983750296
 20
101.9498129369445
 30
0.0
 11
844.1823392215832
 21
102.1583754369445
 31
0.0
  0
LINE
  5
21C
330
1F
100
AcDbEntity
  8
1
  6
Continuous
 62
     7
370
     9
100
AcDbLine
 10
1028.82109837503
 20
100.6583754369445
 30
0.0
 11
1028.82109837503
 21
76.45837543694454
 31
0.0
  0
LINE
  5
21D
330
1F
100
AcDbEntity
  8
1
  6
Continuous
 62
     7
370
     9
100
AcDbLine
 10
844.1823392215832
 20
102.1583754369445
 30
0.0
 11
1027.32109837503
 21
102.1583754369445
 31
0.0
  0
LINE
  5
21E
330
1F
100
AcDbEntity
  8
1
  6
Continuous
 62
     7
370
     9
100
AcDbLine
 10
844.1823392215832
 20
74.95837543694454
 30
0.0
 11
1027.32109837503
 21
74.95837543694454
 31
0.0
  0
LINE
  5
21F
330
1F
100
AcDbEntity
  8
1
  6
Continuous
 62
     7
370
     9
100
AcDbLine
 10
1026.82109837503
 20
102.1583754369445
 30
0.0
 11
1026.82109837503
 21
74.95837543694454
 31
0.0
  0
LINE
  5
220
330
1F
100
AcDbEntity
  8
1
  6
Continuous
 62
     7
370
     9
100
AcDbLine
 10
1027.32109837503
 20
102.1583754369442
 30
0.0
 11
1028.82109837503
 21
100.6583754369442
 31
0.0
  0
LINE
  5
221
330
1F
100
AcDbEntity
  8
1
  6
Continuous
 62
     7
370
     9
100
AcDbLine
 10
1028.82109837503
 20
76.4583754369442
 30
0.0
 11
1027.32109837503
 21
74.9583754369442
 31
0.0
  0
LINE
  5
222
330
1F
100
AcDbEntity
  8
1
  6
Continuous
 62
     7
370
     9
100
AcDbLine
 10
894.1823392215832
 20
157.1583754369445
 30
0.0
 11
1027.32109837503
 21
157.1583754369445
 31
0.0
  0
LINE
  5
223
330
1F
100
AcDbEntity
  8
1
  6
Continuous
 62
     7
370
     9
100
AcDbLine
 10
1028.82109837503
 20
155.6583754369445
 30
0.0
 11
1028.82109837503
 21
131.4583754369446
 31
0.0
  0
LINE
  5
224
330
1F
100
AcDbEntity
  8
1
  6
Continuous
 62
     7
370
     9
100
AcDbLine
 10
893.8210983750295
 20
156.9498129369445
 30
0.0
 11
894.1823392215832
 21
157.1583754369445
 31
0.0
  0
LINE
  5
225
330
1F
100
AcDbEntity
  8
1
  6
Continuous
 62
     7
370
     9
100
AcDbLine
 10
893.8210983750297
 20
130.1669379369445
 30
0.0
 11
894.1823392215832
 21
129.9583754369446
 31
0.0
  0
LINE
  5
226
330
1F
100
AcDbEntity
  8
1
  6
Continuous
 62
     7
370
     9
100
AcDbLine
 10
880.4727112782557
 20
130.5840750337187
 30
0.0
 11
893.8210983750299
 21
130.1669379369445
 31
0.0
  0
LINE
  5
227
330
1F
100
AcDbEntity
  8
1
  6
Continuous
 62
     7
370
     9
100
AcDbLine
 10
880.4727112782555
 20
156.5326758401703
 30
0.0
 11
880.4727112782555
 21
130.5840750337187
 31
0.0
  0
LINE
  5
228
330
1F
100
AcDbEntity
  8
1
  6
Continuous
 62
     7
370
     9
100
AcDbLine
 10
878.8210983750298
 20
154.8810629369445
 30
0.0
 11
878.8210983750298
 21
132.2356879369444
 31
0.0
  0
LINE
  5
229
330
1F
100
AcDbEntity
  8
1
  6
Continuous
 62
     7
370
     9
100
AcDbLine
 10
878.8210983750296
 20
154.8810629369448
 30
0.0
 11
880.4727112782554
 21
156.5326758401706
 31
0.0
  0
LINE
  5
22A
330
1F
100
AcDbEntity
  8
1
  6
Continuous
 62
     7
370
     9
100
AcDbLine
 10
893.8210983750297
 20
156.9498129369446
 30
0.0
 11
893.8210983750297
 21
130.1669379369445
 31
0.0
  0
LINE
  5
22B
330
1F
100
AcDbEntity
  8
1
  6
Continuous
 62
     7
370
     9
100
AcDbLine
 10
879.2732274072879
 20
155.3331919692026
 30
0.0
 11
893.8210983750299
 21
155.7878129369445
 31
0.0
  0
LINE
  5
22C
330
1F
100
AcDbEntity
  8
1
  6
Continuous
 62
     7
370
     9
100
AcDbLine
 10
893.8210983750299
 20
155.7878129369447
 30
0.0
 11
896.194982259978
 21
157.1583754369445
 31
0.0
  0
LINE
  5
22D
330
1F
100
AcDbEntity
  8
1
  6
Continuous
 62
     7
370
     9
100
AcDbLine
 10
880.4727112782555
 20
156.5326758401703
 30
0.0
 11
893.8210983750297
 21
156.9498129369445
 31
0.0
  0
LINE
  5
22E
330
1F
100
AcDbEntity
  8
1
  6
Continuous
 62
     7
370
     9
100
AcDbLine
 10
879.2732274072879
 20
131.7835589046865
 30
0.0
 11
893.8210983750299
 21
131.3289379369445
 31
0.0
  0
LINE
  5
22F
330
1F
100
AcDbEntity
  8
1
  6
Continuous
 62
     7
370
     9
100
AcDbLine
 10
878.8210983750296
 20
132.2356879369444
 30
0.0
 11
880.4727112782555
 21
130.5840750337185
 31
0.0
  0
LINE
  5
230
330
1F
100
AcDbEntity
  8
1
  6
Continuous
 62
     7
370
     9
100
AcDbLine
 10
893.8210983750299
 20
131.3289379369443
 30
0.0
 11
896.1949822599782
 21
129.9583754369445
 31
0.0
  0
LINE
  5
231
330
1F
100
AcDbEntity
  8
1
  6
Continuous
 62
     7
370
     9
100
AcDbLine
 10
894.1823392215832
 20
129.9583754369446
 30
0.0
 11
1027.32109837503
 21
129.9583754369446
 31
0.0
  0
LINE
  5
232
330
1F
100
AcDbEntity
  8
1
  6
Continuous
 62
     7
370
     9
100
AcDbLine
 10
1026.82109837503
 20
157.1583754369445
 30
0.0
 11
1026.82109837503
 21
129.9583754369446
 31
0.0
  0
LINE
  5
233
330
1F
100
AcDbEntity
  8
1
  6
Continuous
 62
     7
370
     9
100
AcDbLine
 10
1027.32109837503
 20
157.1583754369441
 30
0.0
 11
1028.82109837503
 21
155.6583754369441
 31
0.0
  0
LINE
  5
234
330
1F
100
AcDbEntity
  8
1
  6
Continuous
 62
     7
370
     9
100
AcDbLine
 10
1028.82109837503
 20
131.4583754369442
 30
0.0
 11
1027.32109837503
 21
129.9583754369442
 31
0.0
  0
LINE
  5
235
330
1F
100
AcDbEntity
  8
1
  6
Continuous
 62
     7
370
     9
100
AcDbLine
 10
919.1823392215832
 20
212.1583754369445
 30
0.0
 11
1027.32109837503
 21
212.1583754369445
 31
0.0
  0
LINE
  5
236
330
1F
100
AcDbEntity
  8
1
  6
Continuous
 62
     7
370
     9
100
AcDbLine
 10
918.8210983750295
 20
211.9498129369445
 30
0.0
 11
919.1823392215832
 21
212.1583754369445
 31
0.0
  0
LINE
  5
237
330
1F
100
AcDbEntity
  8
1
  6
Continuous
 62
     7
370
     9
100
AcDbLine
 10
1028.82109837503
 20
210.6583754369445
 30
0.0
 11
1028.82109837503
 21
186.4583754369446
 31
0.0
  0
LINE
  5
238
330
1F
100
AcDbEntity
  8
1
  6
Continuous
 62
     7
370
     9
100
AcDbLine
 10
918.8210983750297
 20
185.1669379369445
 30
0.0
 11
919.1823392215832
 21
184.9583754369446
 31
0.0
  0
LINE
  5
239
330
1F
100
AcDbEntity
  8
1
  6
Continuous
 62
     7
370
     9
100
AcDbLine
 10
905.4727112782556
 20
185.5840750337186
 30
0.0
 11
918.8210983750299
 21
185.1669379369445
 31
0.0
  0
LINE
  5
23A
330
1F
100
AcDbEntity
  8
1
  6
Continuous
 62
     7
370
     9
100
AcDbLine
 10
905.4727112782554
 20
211.5326758401703
 30
0.0
 11
905.4727112782554
 21
185.5840750337187
 31
0.0
  0
LINE
  5
23B
330
1F
100
AcDbEntity
  8
1
  6
Continuous
 62
     7
370
     9
100
AcDbLine
 10
903.8210983750297
 20
209.8810629369445
 30
0.0
 11
903.8210983750297
 21
187.2356879369444
 31
0.0
  0
LINE
  5
23C
330
1F
100
AcDbEntity
  8
1
  6
Continuous
 62
     7
370
     9
100
AcDbLine
 10
903.8210983750297
 20
209.8810629369448
 30
0.0
 11
905.4727112782554
 21
211.5326758401706
 31
0.0
  0
LINE
  5
23D
330
1F
100
AcDbEntity
  8
1
  6
Continuous
 62
     7
370
     9
100
AcDbLine
 10
918.8210983750297
 20
211.9498129369446
 30
0.0
 11
918.8210983750297
 21
185.1669379369445
 31
0.0
  0
LINE
  5
23E
330
1F
100
AcDbEntity
  8
1
  6
Continuous
 62
     7
370
     9
100
AcDbLine
 10
904.2732274072879
 20
210.3331919692026
 30
0.0
 11
918.8210983750299
 21
210.7878129369445
 31
0.0
  0
LINE
  5
23F
330
1F
100
AcDbEntity
  8
1
  6
Continuous
 62
     7
370
     9
100
AcDbLine
 10
918.8210983750299
 20
210.7878129369447
 30
0.0
 11
921.1949822599782
 21
212.1583754369445
 31
0.0
  0
LINE
  5
240
330
1F
100
AcDbEntity
  8
1
  6
Continuous
 62
     7
370
     9
100
AcDbLine
 10
905.4727112782556
 20
211.5326758401703
 30
0.0
 11
918.8210983750297
 21
211.9498129369445
 31
0.0
  0
LINE
  5
241
330
1F
100
AcDbEntity
  8
1
  6
Continuous
 62
     7
370
     9
100
AcDbLine
 10
904.2732274072879
 20
186.7835589046865
 30
0.0
 11
918.8210983750299
 21
186.3289379369446
 31
0.0
  0
LINE
  5
242
330
1F
100
AcDbEntity
  8
1
  6
Continuous
 62
     7
370
     9
100
AcDbLine
 10
903.8210983750297
 20
187.2356879369444
 30
0.0
 11
905.4727112782554
 21
185.5840750337185
 31
0.0
  0
LINE
  5
243
330
1F
100
AcDbEntity
  8
1
  6
Continuous
 62
     7
370
     9
100
AcDbLine
 10
918.8210983750299
 20
186.3289379369443
 30
0.0
 11
921.1949822599782
 21
184.9583754369445
 31
0.0
  0
LINE
  5
244
330
1F
100
AcDbEntity
  8
1
  6
Continuous
 62
     7
370
     9
100
AcDbLine
 10
919.1823392215832
 20
184.9583754369446
 30
0.0
 11
1027.32109837503
 21
184.9583754369446
 31
0.0
  0
LINE
  5
245
330
1F
100
AcDbEntity
  8
1
  6
Continuous
 62
     7
370
     9
100
AcDbLine
 10
1026.82109837503
 20
212.1583754369445
 30
0.0
 11
1026.82109837503
 21
184.9583754369446
 31
0.0
  0
LINE
  5
246
330
1F
100
AcDbEntity
  8
1
  6
Continuous
 62
     7
370
     9
100
AcDbLine
 10
1027.32109837503
 20
212.1583754369441
 30
0.0
 11
1028.82109837503
 21
210.6583754369441
 31
0.0
  0
LINE
  5
247
330
1F
100
AcDbEntity
  8
1
  6
Continuous
 62
     7
370
     9
100
AcDbLine
 10
1028.82109837503
 20
186.4583754369442
 30
0.0
 11
1027.32109837503
 21
184.9583754369442
 31
0.0
  0
LINE
  5
248
330
1F
100
AcDbEntity
  8
1
  6
Continuous
 62
     7
370
     9
100
AcDbLine
 10
944.1823392215832
 20
267.1583754369445
 30
0.0
 11
1027.32109837503
 21
267.1583754369445
 31
0.0
  0
LINE
  5
249
330
1F
100
AcDbEntity
  8
1
  6
Continuous
 62
     7
370
     9
100
AcDbLine
 10
943.8210983750295
 20
266.9498129369445
 30
0.0
 11
944.1823392215832
 21
267.1583754369445
 31
0.0
  0
LINE
  5
24A
330
1F
100
AcDbEntity
  8
1
  6
Continuous
 62
     7
370
     9
100
AcDbLine
 10
1028.82109837503
 20
265.6583754369445
 30
0.0
 11
1028.82109837503
 21
241.4583754369445
 31
0.0
  0
LINE
  5
24B
330
1F
100
AcDbEntity
  8
1
  6
Continuous
 62
     7
370
     9
100
AcDbLine
 10
943.8210983750297
 20
240.1669379369445
 30
0.0
 11
944.1823392215832
 21
239.9583754369445
 31
0.0
  0
LINE
  5
24C
330
1F
100
AcDbEntity
  8
1
  6
Continuous
 62
     7
370
     9
100
AcDbLine
 10
930.4727112782556
 20
240.5840750337187
 30
0.0
 11
943.8210983750299
 21
240.1669379369445
 31
0.0
  0
LINE
  5
24D
330
1F
100
AcDbEntity
  8
1
  6
Continuous
 62
     7
370
     9
100
AcDbLine
 10
930.4727112782554
 20
266.5326758401703
 30
0.0
 11
930.4727112782554
 21
240.5840750337187
 31
0.0
  0
LINE
  5
24E
330
1F
100
AcDbEntity
  8
1
  6
Continuous
 62
     7
370
     9
100
AcDbLine
 10
928.8210983750297
 20
264.8810629369445
 30
0.0
 11
928.8210983750297
 21
242.2356879369444
 31
0.0
  0
LINE
  5
24F
330
1F
100
AcDbEntity
  8
1
  6
Continuous
 62
     7
370
     9
100
AcDbLine
 10
928.8210983750297
 20
264.8810629369448
 30
0.0
 11
930.4727112782554
 21
266.5326758401706
 31
0.0
  0
LINE
  5
250
330
1F
100
AcDbEntity
  8
1
  6
Continuous
 62
     7
370
     9
100
AcDbLine
 10
943.8210983750297
 20
266.9498129369446
 30
0.0
 11
943.8210983750297
 21
240.1669379369445
 31
0.0
  0
LINE
  5
251
330
1F
100
AcDbEntity
  8
1
  6
Continuous
 62
     7
370
     9
100
AcDbLine
 10
929.2732274072879
 20
265.3331919692026
 30
0.0
 11
943.8210983750299
 21
265.7878129369445
 31
0.0
  0
LINE
  5
252
330
1F
100
AcDbEntity
  8
1
  6
Continuous
 62
     7
370
     9
100
AcDbLine
 10
943.8210983750299
 20
265.7878129369447
 30
0.0
 11
946.194982259978
 21
267.1583754369445
 31
0.0
  0
LINE
  5
253
330
1F
100
AcDbEntity
  8
1
  6
Continuous
 62
     7
370
     9
100
AcDbLine
 10
930.4727112782556
 20
266.5326758401703
 30
0.0
 11
943.8210983750297
 21
266.9498129369445
 31
0.0
  0
LINE
  5
254
330
1F
100
AcDbEntity
  8
1
  6
Continuous
 62
     7
370
     9
100
AcDbLine
 10
929.2732274072879
 20
241.7835589046865
 30
0.0
 11
943.8210983750299
 21
241.3289379369445
 31
0.0
  0
LINE
  5
255
330
1F
100
AcDbEntity
  8
1
  6
Continuous
 62
     7
370
     9
100
AcDbLine
 10
928.8210983750295
 20
242.2356879369443
 30
0.0
 11
930.4727112782554
 21
240.5840750337185
 31
0.0
  0
LINE
  5
256
330
1F
100
AcDbEntity
  8
1
  6
Continuous
 62
     7
370
     9
100
AcDbLine
 10
943.8210983750299
 20
241.3289379369443
 30
0.0
 11
946.1949822599782
 21
239.9583754369445
 31
0.0
  0
LINE
  5
257
330
1F
100
AcDbEntity
  8
1
  6
Continuous
 62
     7
370
     9
100
AcDbLine
 10
944.1823392215832
 20
239.9583754369445
 30
0.0
 11
1027.32109837503
 21
239.9583754369445
 31
0.0
  0
LINE
  5
258
330
1F
100
AcDbEntity
  8
1
  6
Continuous
 62
     7
370
     9
100
AcDbLine
 10
1026.82109837503
 20
267.1583754369445
 30
0.0
 11
1026.82109837503
 21
239.9583754369445
 31
0.0
  0
LINE
  5
259
330
1F
100
AcDbEntity
  8
1
  6
Continuous
 62
     7
370
     9
100
AcDbLine
 10
1027.32109837503
 20
267.1583754369441
 30
0.0
 11
1028.82109837503
 21
265.6583754369441
 31
0.0
  0
LINE
  5
25A
330
1F
100
AcDbEntity
  8
1
  6
Continuous
 62
     7
370
     9
100
AcDbLine
 10
1028.82109837503
 20
241.4583754369442
 30
0.0
 11
1027.32109837503
 21
239.9583754369442
 31
0.0
  0
LINE
  5
25B
330
1F
100
AcDbEntity
  8
1
  6
Continuous
 62
     7
370
     9
100
AcDbLine
 10
969.1823392215832
 20
322.1583754369445
 30
0.0
 11
1027.32109837503
 21
322.1583754369445
 31
0.0
  0
LINE
  5
25C
330
1F
100
AcDbEntity
  8
1
  6
Continuous
 62
     7
370
     9
100
AcDbLine
 10
968.8210983750295
 20
321.9498129369445
 30
0.0
 11
969.1823392215832
 21
322.1583754369445
 31
0.0
  0
LINE
  5
25D
330
1F
100
AcDbEntity
  8
1
  6
Continuous
 62
     7
370
     9
100
AcDbLine
 10
1028.82109837503
 20
320.6583754369445
 30
0.0
 11
1028.82109837503
 21
296.4583754369445
 31
0.0
  0
LINE
  5
25E
330
1F
100
AcDbEntity
  8
1
  6
Continuous
 62
     7
370
     9
100
AcDbLine
 10
968.8210983750297
 20
295.1669379369445
 30
0.0
 11
969.1823392215832
 21
294.9583754369445
 31
0.0
  0
LINE
  5
25F
330
1F
100
AcDbEntity
  8
1
  6
Continuous
 62
     7
370
     9
100
AcDbLine
 10
955.4727112782556
 20
295.5840750337187
 30
0.0
 11
968.8210983750299
 21
295.1669379369445
 31
0.0
  0
LINE
  5
260
330
1F
100
AcDbEntity
  8
1
  6
Continuous
 62
     7
370
     9
100
AcDbLine
 10
955.4727112782554
 20
321.5326758401703
 30
0.0
 11
955.4727112782554
 21
295.5840750337187
 31
0.0
  0
LINE
  5
261
330
1F
100
AcDbEntity
  8
1
  6
Continuous
 62
     7
370
     9
100
AcDbLine
 10
953.8210983750297
 20
319.8810629369445
 30
0.0
 11
953.8210983750297
 21
297.2356879369444
 31
0.0
  0
LINE
  5
262
330
1F
100
AcDbEntity
  8
1
  6
Continuous
 62
     7
370
     9
100
AcDbLine
 10
953.8210983750297
 20
319.8810629369447
 30
0.0
 11
955.4727112782554
 21
321.5326758401706
 31
0.0
  0
LINE
  5
263
330
1F
100
AcDbEntity
  8
1
  6
Continuous
 62
     7
370
     9
100
AcDbLine
 10
968.8210983750297
 20
321.9498129369446
 30
0.0
 11
968.8210983750297
 21
295.1669379369445
 31
0.0
  0
LINE
  5
264
330
1F
100
AcDbEntity
  8
1
  6
Continuous
 62
     7
370
     9
100
AcDbLine
 10
954.2732274072879
 20
320.3331919692026
 30
0.0
 11
968.8210983750299
 21
320.7878129369445
 31
0.0
  0
LINE
  5
265
330
1F
100
AcDbEntity
  8
1
  6
Continuous
 62
     7
370
     9
100
AcDbLine
 10
968.8210983750299
 20
320.7878129369446
 30
0.0
 11
971.194982259978
 21
322.1583754369445
 31
0.0
  0
LINE
  5
266
330
1F
100
AcDbEntity
  8
1
  6
Continuous
 62
     7
370
     9
100
AcDbLine
 10
955.4727112782556
 20
321.5326758401703
 30
0.0
 11
968.8210983750297
 21
321.9498129369445
 31
0.0
  0
LINE
  5
267
330
1F
100
AcDbEntity
  8
1
  6
Continuous
 62
     7
370
     9
100
AcDbLine
 10
954.2732274072879
 20
296.7835589046864
 30
0.0
 11
968.8210983750299
 21
296.3289379369445
 31
0.0
  0
LINE
  5
268
330
1F
100
AcDbEntity
  8
1
  6
Continuous
 62
     7
370
     9
100
AcDbLine
 10
953.8210983750297
 20
297.2356879369443
 30
0.0
 11
955.4727112782554
 21
295.5840750337185
 31
0.0
  0
LINE
  5
269
330
1F
100
AcDbEntity
  8
1
  6
Continuous
 62
     7
370
     9
100
AcDbLine
 10
968.8210983750299
 20
296.3289379369443
 30
0.0
 11
971.1949822599782
 21
294.9583754369445
 31
0.0
  0
LINE
  5
26A
330
1F
100
AcDbEntity
  8
1
  6
Continuous
 62
     7
370
     9
100
AcDbLine
 10
969.1823392215832
 20
294.9583754369445
 30
0.0
 11
1027.32109837503
 21
294.9583754369445
 31
0.0
  0
LINE
  5
26B
330
1F
100
AcDbEntity
  8
1
  6
Continuous
 62
     7
370
     9
100
AcDbLine
 10
1026.82109837503
 20
322.1583754369445
 30
0.0
 11
1026.82109837503
 21
294.9583754369445
 31
0.0
  0
LINE
  5
26C
330
1F
100
AcDbEntity
  8
1
  6
Continuous
 62
     7
370
     9
100
AcDbLine
 10
1027.32109837503
 20
322.1583754369441
 30
0.0
 11
1028.82109837503
 21
320.658375436944
 31
0.0
  0
LINE
  5
26D
330
1F
100
AcDbEntity
  8
1
  6
Continuous
 62
     7
370
     9
100
AcDbLine
 10
1028.82109837503
 20
296.4583754369442
 30
0.0
 11
1027.32109837503
 21
294.9583754369442
 31
0.0
  0
LINE
  5
26E
330
1F
100
AcDbEntity
  8
1
  6
Continuous
 62
     7
370
     9
100
AcDbLine
 10
994.1823392215832
 20
377.1583754369445
 30
0.0
 11
1027.32109837503
 21
377.1583754369445
 31
0.0
  0
LINE
  5
26F
330
1F
100
AcDbEntity
  8
1
  6
Continuous
 62
     7
370
     9
100
AcDbLine
 10
993.8210983750297
 20
376.9498129369445
 30
0.0
 11
994.1823392215832
 21
377.1583754369444
 31
0.0
  0
LINE
  5
270
330
1F
100
AcDbEntity
  8
1
  6
Continuous
 62
     7
370
     9
100
AcDbLine
 10
1028.82109837503
 20
375.6583754369445
 30
0.0
 11
1028.82109837503
 21
351.4583754369445
 31
0.0
  0
LINE
  5
271
330
1F
100
AcDbEntity
  8
1
  6
Continuous
 62
     7
370
     9
100
AcDbLine
 10
993.8210983750297
 20
350.1669379369445
 30
0.0
 11
994.1823392215832
 21
349.9583754369445
 31
0.0
  0
LINE
  5
272
330
1F
100
AcDbEntity
  8
1
  6
Continuous
 62
     7
370
     9
100
AcDbLine
 10
980.4727112782556
 20
350.5840750337187
 30
0.0
 11
993.8210983750299
 21
350.1669379369445
 31
0.0
  0
LINE
  5
273
330
1F
100
AcDbEntity
  8
1
  6
Continuous
 62
     7
370
     9
100
AcDbLine
 10
980.4727112782554
 20
376.5326758401703
 30
0.0
 11
980.4727112782554
 21
350.5840750337187
 31
0.0
  0
LINE
  5
274
330
1F
100
AcDbEntity
  8
1
  6
Continuous
 62
     7
370
     9
100
AcDbLine
 10
978.8210983750297
 20
374.8810629369445
 30
0.0
 11
978.8210983750297
 21
352.2356879369444
 31
0.0
  0
LINE
  5
275
330
1F
100
AcDbEntity
  8
1
  6
Continuous
 62
     7
370
     9
100
AcDbLine
 10
978.8210983750297
 20
374.8810629369447
 30
0.0
 11
980.4727112782554
 21
376.5326758401704
 31
0.0
  0
LINE
  5
276
330
1F
100
AcDbEntity
  8
1
  6
Continuous
 62
     7
370
     9
100
AcDbLine
 10
993.8210983750297
 20
376.9498129369446
 30
0.0
 11
993.8210983750297
 21
350.1669379369445
 31
0.0
  0
LINE
  5
277
330
1F
100
AcDbEntity
  8
1
  6
Continuous
 62
     7
370
     9
100
AcDbLine
 10
979.2732274072879
 20
375.3331919692026
 30
0.0
 11
993.8210983750299
 21
375.7878129369445
 31
0.0
  0
LINE
  5
278
330
1F
100
AcDbEntity
  8
1
  6
Continuous
 62
     7
370
     9
100
AcDbLine
 10
993.8210983750299
 20
375.7878129369446
 30
0.0
 11
996.194982259978
 21
377.1583754369445
 31
0.0
  0
LINE
  5
279
330
1F
100
AcDbEntity
  8
1
  6
Continuous
 62
     7
370
     9
100
AcDbLine
 10
980.4727112782556
 20
376.5326758401703
 30
0.0
 11
993.8210983750297
 21
376.9498129369445
 31
0.0
  0
LINE
  5
27A
330
1F
100
AcDbEntity
  8
1
  6
Continuous
 62
     7
370
     9
100
AcDbLine
 10
979.2732274072879
 20
351.7835589046864
 30
0.0
 11
993.8210983750299
 21
351.3289379369445
 31
0.0
  0
LINE
  5
27B
330
1F
100
AcDbEntity
  8
1
  6
Continuous
 62
     7
370
     9
100
AcDbLine
 10
978.8210983750295
 20
352.2356879369443
 30
0.0
 11
980.4727112782554
 21
350.5840750337185
 31
0.0
  0
LINE
  5
27C
330
1F
100
AcDbEntity
  8
1
  6
Continuous
 62
     7
370
     9
100
AcDbLine
 10
993.8210983750299
 20
351.3289379369443
 30
0.0
 11
996.1949822599782
 21
349.9583754369445
 31
0.0
  0
LINE
  5
27D
330
1F
100
AcDbEntity
  8
1
  6
Continuous
 62
     7
370
     9
100
AcDbLine
 10
994.1823392215832
 20
349.9583754369445
 30
0.0
 11
1027.32109837503
 21
349.9583754369445
 31
0.0
  0
LINE
  5
27E
330
1F
100
AcDbEntity
  8
1
  6
Continuous
 62
     7
370
     9
100
AcDbLine
 10
1026.82109837503
 20
377.1583754369445
 30
0.0
 11
1026.82109837503
 21
349.9583754369445
 31
0.0
  0
LINE
  5
27F
330
1F
100
AcDbEntity
  8
1
  6
Continuous
 62
     7
370
     9
100
AcDbLine
 10
1027.32109837503
 20
377.158375436944
 30
0.0
 11
1028.82109837503
 21
375.658375436944
 31
0.0
  0
LINE
  5
280
330
1F
100
AcDbEntity
  8
1
  6
Continuous
 62
     7
370
     9
100
AcDbLine
 10
1028.82109837503
 20
351.4583754369442
 30
0.0
 11
1027.32109837503
 21
349.9583754369442
 31
0.0
  0
CIRCLE
  5
281
330
1F
100
AcDbEntity
  8
1
  6
Continuous
 62
     7
370
     9
100
AcDbCircle
 10
928.8210983750297
 20
363.5583754369446
 30
0.0
 40
13.6
  0
CIRCLE
  5
282
330
1F
100
AcDbEntity
  8
1
  6
Continuous
 62
     7
370
     9
100
AcDbCircle
 10
928.8210983750297
 20
363.5583754369446
 30
0.0
 40
13.2205
  0
CIRCLE
  5
283
330
1F
100
AcDbEntity
  8
1
  6
Continuous
 62
     7
370
     9
100
AcDbCircle
 10
928.8210983750297
 20
363.5583754369446
 30
0.0
 40
12.0585
  0
CIRCLE
  5
284
330
1F
100
AcDbEntity
  8
1
  6
Continuous
 62
     7
370
     9
100
AcDbCircle
 10
928.8210983750297
 20
363.5583754369446
 30
0.0
 40
10.6
  0
LINE
  5
285
330
1F
100
AcDbEntity
  8
1
  6
Continuous
 62
     7
370
     9
100
AcDbLine
 10
18.82109837502954
 20
504.3969711294069
 30
0.0
 11
20.88561450406179
 21
506.4614872584391
 31
0.0
  0
LINE
  5
286
330
1F
100
AcDbEntity
  8
1
  6
Continuous
 62
     7
370
     9
100
AcDbLine
 10
19.35890482664243
 20
475.259539677794
 30
0.0
 11
35.82109837502981
 21
474.7450961294069
 31
0.0
  0
LINE
  5
287
330
1F
100
AcDbEntity
  8
1
  6
Continuous
 62
     7
370
     9
100
AcDbLine
 10
20.88561450406186
 20
506.4614872584391
 30
0.0
 11
20.88561450406186
 21
473.7328300003746
 31
0.0
  0
LINE
  5
288
330
1F
100
AcDbEntity
  8
1
  6
Continuous
 62
     7
370
     9
100
AcDbLine
 10
18.82109837502948
 20
475.7973461294069
 30
0.0
 11
20.88561450406173
 21
473.7328300003746
 31
0.0
  0
LINE
  5
289
330
1F
100
AcDbEntity
  8
1
  6
Continuous
 62
     7
370
     9
100
AcDbLine
 10
35.82109837502955
 20
474.7450961294067
 30
0.0
 11
38.67540985272731
 21
473.0971586294069
 31
0.0
  0
LINE
  5
28A
330
1F
100
AcDbEntity
  8
1
  6
Continuous
 62
     7
370
     9
100
AcDbLine
 10
20.88561450406183
 20
506.4614872584391
 30
0.0
 11
35.82109837502952
 21
506.9282211294069
 31
0.0
  0
LINE
  5
28B
330
1F
100
AcDbEntity
  8
1
  6
Continuous
 62
     7
370
     9
100
AcDbLine
 10
35.82109837502966
 20
505.4492211294072
 30
0.0
 11
38.67540985272743
 21
507.097158629407
 31
0.0
  0
LINE
  5
28C
330
1F
100
AcDbEntity
  8
1
  6
Continuous
 62
     7
370
     9
100
AcDbLine
 10
19.35890482664232
 20
504.9347775810198
 30
0.0
 11
35.82109837502972
 21
505.4492211294069
 31
0.0
  0
LINE
  5
28D
330
1F
100
AcDbEntity
  8
1
  6
Continuous
 62
     7
370
     9
100
AcDbLine
 10
18.82109837502955
 20
504.3969711294069
 30
0.0
 11
18.82109837502955
 21
475.7973461294069
 31
0.0
  0
LINE
  5
28E
330
1F
100
AcDbEntity
  8
1
  6
Continuous
 62
     7
370
     9
100
AcDbLine
 10
35.82109837502955
 20
506.9282211294069
 30
0.0
 11
35.82109837502955
 21
473.2660961294069
 31
0.0
  0
LINE
  5
28F
330
1F
100
AcDbEntity
  8
1
  6
Continuous
 62
     7
370
     9
100
AcDbLine
 10
20.88561450406189
 20
473.7328300003746
 30
0.0
 11
35.82109837502955
 21
473.2660961294069
 31
0.0
  0
LINE
  5
290
330
1F
100
AcDbEntity
  8
1
  6
Continuous
 62
     7
370
     9
100
AcDbLine
 10
35.82109837502944
 20
473.2660961294069
 30
0.0
 11
36.11370670833315
 21
473.0971586294069
 31
0.0
  0
LINE
  5
291
330
1F
100
AcDbEntity
  8
1
  6
Continuous
 62
     7
370
     9
100
AcDbLine
 10
35.82109837502955
 20
506.9282211294069
 30
0.0
 11
36.1137067083333
 21
507.0971586294069
 31
0.0
  0
LINE
  5
292
330
1F
100
AcDbEntity
  8
1
  6
Continuous
 62
     7
370
     9
100
AcDbLine
 10
218.8210983750295
 20
505.0971586294069
 30
0.0
 11
218.8210983750295
 21
475.0971586294069
 31
0.0
  0
LINE
  5
293
330
1F
100
AcDbEntity
  8
1
  6
Continuous
 62
     7
370
     9
100
AcDbLine
 10
36.11370670833307
 20
507.0971586294069
 30
0.0
 11
216.8210983750295
 21
507.0971586294069
 31
0.0
  0
LINE
  5
294
330
1F
100
AcDbEntity
  8
1
  6
Continuous
 62
     7
370
     9
100
AcDbLine
 10
36.11370670833318
 20
473.0971586294069
 30
0.0
 11
216.8210983750295
 21
473.0971586294069
 31
0.0
  0
LINE
  5
295
330
1F
100
AcDbEntity
  8
1
  6
Continuous
 62
     7
370
     9
100
AcDbLine
 10
216.8210983750295
 20
507.0971586294069
 30
0.0
 11
216.8210983750295
 21
473.0971586294069
 31
0.0
  0
LINE
  5
296
330
1F
100
AcDbEntity
  8
1
  6
Continuous
 62
     7
370
     9
100
AcDbLine
 10
216.8210983750292
 20
507.0971586294067
 30
0.0
 11
218.8210983750292
 21
505.0971586294067
 31
0.0
  0
LINE
  5
297
330
1F
100
AcDbEntity
  8
1
  6
Continuous
 62
     7
370
     9
100
AcDbLine
 10
218.8210983750293
 20
475.0971586294071
 30
0.0
 11
216.8210983750293
 21
473.0971586294071
 31
0.0
  0
LINE
  5
298
330
1F
100
AcDbEntity
  8
1
  6
Continuous
 62
     7
370
     9
100
AcDbLine
 10
86.11370670833313
 20
533.0971586294069
 30
0.0
 11
216.8210983750295
 21
533.0971586294069
 31
0.0
  0
LINE
  5
299
330
1F
100
AcDbEntity
  8
1
  6
Continuous
 62
     7
370
     9
100
AcDbLine
 10
86.11370670833318
 20
567.0971586294069
 30
0.0
 11
216.8210983750295
 21
567.0971586294069
 31
0.0
  0
LINE
  5
29A
330
1F
100
AcDbEntity
  8
1
  6
Continuous
 62
     7
370
     9
100
AcDbLine
 10
216.8210983750295
 20
567.0971586294069
 30
0.0
 11
216.8210983750295
 21
533.0971586294069
 31
0.0
  0
LINE
  5
29B
330
1F
100
AcDbEntity
  8
1
  6
Continuous
 62
     7
370
     9
100
AcDbLine
 10
218.8210983750295
 20
565.0971586294069
 30
0.0
 11
218.8210983750295
 21
535.0971586294069
 31
0.0
  0
LINE
  5
29C
330
1F
100
AcDbEntity
  8
1
  6
Continuous
 62
     7
370
     9
100
AcDbLine
 10
85.82109837502955
 20
566.9282211294069
 30
0.0
 11
86.1137067083333
 21
567.097158629407
 31
0.0
  0
LINE
  5
29D
330
1F
100
AcDbEntity
  8
1
  6
Continuous
 62
     7
370
     9
100
AcDbLine
 10
85.82109837502944
 20
533.2660961294068
 30
0.0
 11
86.11370670833315
 21
533.0971586294069
 31
0.0
  0
LINE
  5
29E
330
1F
100
AcDbEntity
  8
1
  6
Continuous
 62
     7
370
     9
100
AcDbLine
 10
70.88561450406186
 20
533.7328300003746
 30
0.0
 11
85.82109837502955
 21
533.2660961294068
 31
0.0
  0
LINE
  5
29F
330
1F
100
AcDbEntity
  8
1
  6
Continuous
 62
     7
370
     9
100
AcDbLine
 10
85.82109837502955
 20
566.9282211294069
 30
0.0
 11
85.82109837502955
 21
533.2660961294068
 31
0.0
  0
LINE
  5
2A0
330
1F
100
AcDbEntity
  8
1
  6
Continuous
 62
     7
370
     9
100
AcDbLine
 10
68.82109837502955
 20
564.3969711294069
 30
0.0
 11
68.82109837502955
 21
535.797346129407
 31
0.0
  0
LINE
  5
2A1
330
1F
100
AcDbEntity
  8
1
  6
Continuous
 62
     7
370
     9
100
AcDbLine
 10
69.35890482664232
 20
564.9347775810197
 30
0.0
 11
85.82109837502972
 21
565.4492211294069
 31
0.0
  0
LINE
  5
2A2
330
1F
100
AcDbEntity
  8
1
  6
Continuous
 62
     7
370
     9
100
AcDbLine
 10
85.82109837502966
 20
565.4492211294072
 30
0.0
 11
88.67540985272743
 21
567.097158629407
 31
0.0
  0
LINE
  5
2A3
330
1F
100
AcDbEntity
  8
1
  6
Continuous
 62
     7
370
     9
100
AcDbLine
 10
70.88561450406183
 20
566.4614872584391
 30
0.0
 11
85.8210983750295
 21
566.9282211294069
 31
0.0
  0
LINE
  5
2A4
330
1F
100
AcDbEntity
  8
1
  6
Continuous
 62
     7
370
     9
100
AcDbLine
 10
85.82109837502955
 20
534.7450961294066
 30
0.0
 11
88.67540985272731
 21
533.0971586294069
 31
0.0
  0
LINE
  5
2A5
330
1F
100
AcDbEntity
  8
1
  6
Continuous
 62
     7
370
     9
100
AcDbLine
 10
68.82109837502946
 20
535.797346129407
 30
0.0
 11
70.88561450406172
 21
533.7328300003746
 31
0.0
  0
LINE
  5
2A6
330
1F
100
AcDbEntity
  8
1
  6
Continuous
 62
     7
370
     9
100
AcDbLine
 10
70.88561450406186
 20
566.4614872584391
 30
0.0
 11
70.88561450406186
 21
533.7328300003746
 31
0.0
  0
LINE
  5
2A7
330
1F
100
AcDbEntity
  8
1
  6
Continuous
 62
     7
370
     9
100
AcDbLine
 10
69.35890482664243
 20
535.259539677794
 30
0.0
 11
85.8210983750298
 21
534.7450961294069
 31
0.0
  0
LINE
  5
2A8
330
1F
100
AcDbEntity
  8
1
  6
Continuous
 62
     7
370
     9
100
AcDbLine
 10
68.82109837502955
 20
564.3969711294069
 30
0.0
 11
70.8856145040618
 21
566.4614872584392
 31
0.0
  0
LINE
  5
2A9
330
1F
100
AcDbEntity
  8
1
  6
Continuous
 62
     7
370
     9
100
AcDbLine
 10
216.8210983750292
 20
567.0971586294067
 30
0.0
 11
218.8210983750292
 21
565.0971586294067
 31
0.0
  0
LINE
  5
2AA
330
1F
100
AcDbEntity
  8
1
  6
Continuous
 62
     7
370
     9
100
AcDbLine
 10
218.8210983750293
 20
535.0971586294072
 30
0.0
 11
216.8210983750292
 21
533.0971586294072
 31
0.0
  0
LINE
  5
2AB
330
1F
100
AcDbEntity
  8
1
  6
Continuous
 62
     7
370
     9
100
AcDbLine
 10
111.1137067083331
 20
593.0971586294069
 30
0.0
 11
216.8210983750295
 21
593.0971586294069
 31
0.0
  0
LINE
  5
2AC
330
1F
100
AcDbEntity
  8
1
  6
Continuous
 62
     7
370
     9
100
AcDbLine
 10
216.8210983750295
 20
627.0971586294069
 30
0.0
 11
216.8210983750295
 21
593.0971586294069
 31
0.0
  0
LINE
  5
2AD
330
1F
100
AcDbEntity
  8
1
  6
Continuous
 62
     7
370
     9
100
AcDbLine
 10
111.1137067083332
 20
627.0971586294069
 30
0.0
 11
216.8210983750295
 21
627.0971586294069
 31
0.0
  0
LINE
  5
2AE
330
1F
100
AcDbEntity
  8
1
  6
Continuous
 62
     7
370
     9
100
AcDbLine
 10
218.8210983750295
 20
625.0971586294069
 30
0.0
 11
218.8210983750295
 21
595.0971586294069
 31
0.0
  0
LINE
  5
2AF
330
1F
100
AcDbEntity
  8
1
  6
Continuous
 62
     7
370
     9
100
AcDbLine
 10
110.8210983750295
 20
626.9282211294069
 30
0.0
 11
111.1137067083333
 21
627.0971586294069
 31
0.0
  0
LINE
  5
2B0
330
1F
100
AcDbEntity
  8
1
  6
Continuous
 62
     7
370
     9
100
AcDbLine
 10
110.8210983750294
 20
593.2660961294068
 30
0.0
 11
111.1137067083332
 21
593.0971586294069
 31
0.0
  0
LINE
  5
2B1
330
1F
100
AcDbEntity
  8
1
  6
Continuous
 62
     7
370
     9
100
AcDbLine
 10
95.88561450406189
 20
593.7328300003746
 30
0.0
 11
110.8210983750295
 21
593.266096129407
 31
0.0
  0
LINE
  5
2B2
330
1F
100
AcDbEntity
  8
1
  6
Continuous
 62
     7
370
     9
100
AcDbLine
 10
110.8210983750295
 20
626.9282211294069
 30
0.0
 11
110.8210983750295
 21
593.2660961294068
 31
0.0
  0
LINE
  5
2B3
330
1F
100
AcDbEntity
  8
1
  6
Continuous
 62
     7
370
     9
100
AcDbLine
 10
93.82109837502955
 20
624.3969711294069
 30
0.0
 11
93.82109837502955
 21
595.797346129407
 31
0.0
  0
LINE
  5
2B4
330
1F
100
AcDbEntity
  8
1
  6
Continuous
 62
     7
370
     9
100
AcDbLine
 10
94.35890482664232
 20
624.9347775810198
 30
0.0
 11
110.8210983750297
 21
625.4492211294069
 31
0.0
  0
LINE
  5
2B5
330
1F
100
AcDbEntity
  8
1
  6
Continuous
 62
     7
370
     9
100
AcDbLine
 10
110.8210983750297
 20
625.4492211294072
 30
0.0
 11
113.6754098527274
 21
627.097158629407
 31
0.0
  0
LINE
  5
2B6
330
1F
100
AcDbEntity
  8
1
  6
Continuous
 62
     7
370
     9
100
AcDbLine
 10
95.88561450406186
 20
626.4614872584392
 30
0.0
 11
110.8210983750295
 21
626.9282211294069
 31
0.0
  0
LINE
  5
2B7
330
1F
100
AcDbEntity
  8
1
  6
Continuous
 62
     7
370
     9
100
AcDbLine
 10
110.8210983750295
 20
594.7450961294068
 30
0.0
 11
113.6754098527273
 21
593.0971586294069
 31
0.0
  0
LINE
  5
2B8
330
1F
100
AcDbEntity
  8
1
  6
Continuous
 62
     7
370
     9
100
AcDbLine
 10
93.8210983750295
 20
595.797346129407
 30
0.0
 11
95.88561450406175
 21
593.7328300003746
 31
0.0
  0
LINE
  5
2B9
330
1F
100
AcDbEntity
  8
1
  6
Continuous
 62
     7
370
     9
100
AcDbLine
 10
95.88561450406186
 20
626.4614872584392
 30
0.0
 11
95.88561450406186
 21
593.7328300003746
 31
0.0
  0
LINE
  5
2BA
330
1F
100
AcDbEntity
  8
1
  6
Continuous
 62
     7
370
     9
100
AcDbLine
 10
94.35890482664243
 20
595.259539677794
 30
0.0
 11
110.8210983750298
 21
594.7450961294069
 31
0.0
  0
LINE
  5
2BB
330
1F
100
AcDbEntity
  8
1
  6
Continuous
 62
     7
370
     9
100
AcDbLine
 10
93.82109837502955
 20
624.3969711294069
 30
0.0
 11
95.8856145040618
 21
626.4614872584392
 31
0.0
  0
LINE
  5
2BC
330
1F
100
AcDbEntity
  8
1
  6
Continuous
 62
     7
370
     9
100
AcDbLine
 10
216.8210983750292
 20
627.0971586294067
 30
0.0
 11
218.8210983750292
 21
625.0971586294066
 31
0.0
  0
LINE
  5
2BD
330
1F
100
AcDbEntity
  8
1
  6
Continuous
 62
     7
370
     9
100
AcDbLine
 10
218.8210983750292
 20
595.0971586294072
 30
0.0
 11
216.8210983750292
 21
593.0971586294072
 31
0.0
  0
LINE
  5
2BE
330
1F
100
AcDbEntity
  8
1
  6
Continuous
 62
     7
370
     9
100
AcDbLine
 10
136.1137067083331
 20
653.0971586294069
 30
0.0
 11
216.8210983750295
 21
653.0971586294069
 31
0.0
  0
LINE
  5
2BF
330
1F
100
AcDbEntity
  8
1
  6
Continuous
 62
     7
370
     9
100
AcDbLine
 10
216.8210983750295
 20
687.0971586294069
 30
0.0
 11
216.8210983750295
 21
653.0971586294069
 31
0.0
  0
LINE
  5
2C0
330
1F
100
AcDbEntity
  8
1
  6
Continuous
 62
     7
370
     9
100
AcDbLine
 10
136.1137067083332
 20
687.0971586294069
 30
0.0
 11
216.8210983750295
 21
687.0971586294069
 31
0.0
  0
LINE
  5
2C1
330
1F
100
AcDbEntity
  8
1
  6
Continuous
 62
     7
370
     9
100
AcDbLine
 10
218.8210983750295
 20
685.0971586294069
 30
0.0
 11
218.8210983750295
 21
655.0971586294069
 31
0.0
  0
LINE
  5
2C2
330
1F
100
AcDbEntity
  8
1
  6
Continuous
 62
     7
370
     9
100
AcDbLine
 10
135.8210983750295
 20
686.9282211294069
 30
0.0
 11
136.1137067083332
 21
687.0971586294069
 31
0.0
  0
LINE
  5
2C3
330
1F
100
AcDbEntity
  8
1
  6
Continuous
 62
     7
370
     9
100
AcDbLine
 10
135.8210983750294
 20
653.2660961294068
 30
0.0
 11
136.1137067083332
 21
653.0971586294067
 31
0.0
  0
LINE
  5
2C4
330
1F
100
AcDbEntity
  8
1
  6
Continuous
 62
     7
370
     9
100
AcDbLine
 10
120.8856145040619
 20
653.7328300003746
 30
0.0
 11
135.8210983750295
 21
653.2660961294068
 31
0.0
  0
LINE
  5
2C5
330
1F
100
AcDbEntity
  8
1
  6
Continuous
 62
     7
370
     9
100
AcDbLine
 10
135.8210983750295
 20
686.9282211294069
 30
0.0
 11
135.8210983750295
 21
653.2660961294068
 31
0.0
  0
LINE
  5
2C6
330
1F
100
AcDbEntity
  8
1
  6
Continuous
 62
     7
370
     9
100
AcDbLine
 10
118.8210983750295
 20
684.3969711294069
 30
0.0
 11
118.8210983750295
 21
655.7973461294068
 31
0.0
  0
LINE
  5
2C7
330
1F
100
AcDbEntity
  8
1
  6
Continuous
 62
     7
370
     9
100
AcDbLine
 10
119.3589048266423
 20
684.9347775810198
 30
0.0
 11
135.8210983750297
 21
685.4492211294069
 31
0.0
  0
LINE
  5
2C8
330
1F
100
AcDbEntity
  8
1
  6
Continuous
 62
     7
370
     9
100
AcDbLine
 10
135.8210983750297
 20
685.4492211294071
 30
0.0
 11
138.6754098527275
 21
687.097158629407
 31
0.0
  0
LINE
  5
2C9
330
1F
100
AcDbEntity
  8
1
  6
Continuous
 62
     7
370
     9
100
AcDbLine
 10
120.8856145040618
 20
686.4614872584391
 30
0.0
 11
135.8210983750295
 21
686.9282211294069
 31
0.0
  0
LINE
  5
2CA
330
1F
100
AcDbEntity
  8
1
  6
Continuous
 62
     7
370
     9
100
AcDbLine
 10
135.8210983750295
 20
654.7450961294066
 30
0.0
 11
138.6754098527274
 21
653.0971586294069
 31
0.0
  0
LINE
  5
2CB
330
1F
100
AcDbEntity
  8
1
  6
Continuous
 62
     7
370
     9
100
AcDbLine
 10
118.8210983750295
 20
655.7973461294068
 30
0.0
 11
120.8856145040617
 21
653.7328300003746
 31
0.0
  0
LINE
  5
2CC
330
1F
100
AcDbEntity
  8
1
  6
Continuous
 62
     7
370
     9
100
AcDbLine
 10
120.8856145040619
 20
686.4614872584392
 30
0.0
 11
120.8856145040619
 21
653.7328300003746
 31
0.0
  0
LINE
  5
2CD
330
1F
100
AcDbEntity
  8
1
  6
Continuous
 62
     7
370
     9
100
AcDbLine
 10
119.3589048266424
 20
655.259539677794
 30
0.0
 11
135.8210983750298
 21
654.7450961294069
 31
0.0
  0
LINE
  5
2CE
330
1F
100
AcDbEntity
  8
1
  6
Continuous
 62
     7
370
     9
100
AcDbLine
 10
118.8210983750295
 20
684.3969711294069
 30
0.0
 11
120.8856145040617
 21
686.4614872584391
 31
0.0
  0
LINE
  5
2CF
330
1F
100
AcDbEntity
  8
1
  6
Continuous
 62
     7
370
     9
100
AcDbLine
 10
216.8210983750292
 20
687.0971586294065
 30
0.0
 11
218.8210983750292
 21
685.0971586294065
 31
0.0
  0
LINE
  5
2D0
330
1F
100
AcDbEntity
  8
1
  6
Continuous
 62
     7
370
     9
100
AcDbLine
 10
218.8210983750292
 20
655.0971586294072
 30
0.0
 11
216.8210983750292
 21
653.0971586294072
 31
0.0
  0
LINE
  5
2D1
330
1F
100
AcDbEntity
  8
1
  6
Continuous
 62
     7
370
     9
100
AcDbLine
 10
161.1137067083332
 20
713.0971586294069
 30
0.0
 11
216.8210983750295
 21
713.0971586294069
 31
0.0
  0
LINE
  5
2D2
330
1F
100
AcDbEntity
  8
1
  6
Continuous
 62
     7
370
     9
100
AcDbLine
 10
216.8210983750295
 20
747.0971586294069
 30
0.0
 11
216.8210983750295
 21
713.0971586294069
 31
0.0
  0
LINE
  5
2D3
330
1F
100
AcDbEntity
  8
1
  6
Continuous
 62
     7
370
     9
100
AcDbLine
 10
161.1137067083332
 20
747.0971586294069
 30
0.0
 11
216.8210983750295
 21
747.0971586294069
 31
0.0
  0
LINE
  5
2D4
330
1F
100
AcDbEntity
  8
1
  6
Continuous
 62
     7
370
     9
100
AcDbLine
 10
218.8210983750295
 20
745.0971586294069
 30
0.0
 11
218.8210983750295
 21
715.0971586294069
 31
0.0
  0
LINE
  5
2D5
330
1F
100
AcDbEntity
  8
1
  6
Continuous
 62
     7
370
     9
100
AcDbLine
 10
160.8210983750295
 20
746.9282211294069
 30
0.0
 11
161.1137067083332
 21
747.0971586294069
 31
0.0
  0
LINE
  5
2D6
330
1F
100
AcDbEntity
  8
1
  6
Continuous
 62
     7
370
     9
100
AcDbLine
 10
160.8210983750294
 20
713.2660961294068
 30
0.0
 11
161.1137067083332
 21
713.0971586294067
 31
0.0
  0
LINE
  5
2D7
330
1F
100
AcDbEntity
  8
1
  6
Continuous
 62
     7
370
     9
100
AcDbLine
 10
145.8856145040619
 20
713.7328300003746
 30
0.0
 11
160.8210983750295
 21
713.2660961294068
 31
0.0
  0
LINE
  5
2D8
330
1F
100
AcDbEntity
  8
1
  6
Continuous
 62
     7
370
     9
100
AcDbLine
 10
160.8210983750295
 20
746.9282211294069
 30
0.0
 11
160.8210983750295
 21
713.2660961294068
 31
0.0
  0
LINE
  5
2D9
330
1F
100
AcDbEntity
  8
1
  6
Continuous
 62
     7
370
     9
100
AcDbLine
 10
143.8210983750295
 20
744.3969711294069
 30
0.0
 11
143.8210983750295
 21
715.7973461294068
 31
0.0
  0
LINE
  5
2DA
330
1F
100
AcDbEntity
  8
1
  6
Continuous
 62
     7
370
     9
100
AcDbLine
 10
144.3589048266423
 20
744.9347775810198
 30
0.0
 11
160.8210983750298
 21
745.4492211294069
 31
0.0
  0
LINE
  5
2DB
330
1F
100
AcDbEntity
  8
1
  6
Continuous
 62
     7
370
     9
100
AcDbLine
 10
160.8210983750297
 20
745.4492211294071
 30
0.0
 11
163.6754098527275
 21
747.0971586294069
 31
0.0
  0
LINE
  5
2DC
330
1F
100
AcDbEntity
  8
1
  6
Continuous
 62
     7
370
     9
100
AcDbLine
 10
145.8856145040619
 20
746.4614872584391
 30
0.0
 11
160.8210983750294
 21
746.9282211294069
 31
0.0
  0
LINE
  5
2DD
330
1F
100
AcDbEntity
  8
1
  6
Continuous
 62
     7
370
     9
100
AcDbLine
 10
160.8210983750295
 20
714.7450961294066
 30
0.0
 11
163.6754098527274
 21
713.0971586294069
 31
0.0
  0
LINE
  5
2DE
330
1F
100
AcDbEntity
  8
1
  6
Continuous
 62
     7
370
     9
100
AcDbLine
 10
143.8210983750294
 20
715.7973461294068
 30
0.0
 11
145.8856145040617
 21
713.7328300003746
 31
0.0
  0
LINE
  5
2DF
330
1F
100
AcDbEntity
  8
1
  6
Continuous
 62
     7
370
     9
100
AcDbLine
 10
145.8856145040619
 20
746.4614872584392
 30
0.0
 11
145.8856145040619
 21
713.7328300003746
 31
0.0
  0
LINE
  5
2E0
330
1F
100
AcDbEntity
  8
1
  6
Continuous
 62
     7
370
     9
100
AcDbLine
 10
144.3589048266424
 20
715.259539677794
 30
0.0
 11
160.8210983750299
 21
714.7450961294069
 31
0.0
  0
LINE
  5
2E1
330
1F
100
AcDbEntity
  8
1
  6
Continuous
 62
     7
370
     9
100
AcDbLine
 10
143.8210983750295
 20
744.3969711294069
 30
0.0
 11
145.8856145040619
 21
746.4614872584392
 31
0.0
  0
LINE
  5
2E2
330
1F
100
AcDbEntity
  8
1
  6
Continuous
 62
     7
370
     9
100
AcDbLine
 10
216.8210983750292
 20
747.0971586294065
 30
0.0
 11
218.8210983750292
 21
745.0971586294065
 31
0.0
  0
LINE
  5
2E3
330
1F
100
AcDbEntity
  8
1
  6
Continuous
 62
     7
370
     9
100
AcDbLine
 10
218.8210983750292
 20
715.0971586294072
 30
0.0
 11
216.8210983750292
 21
713.0971586294072
 31
0.0
  0
LINE
  5
2E4
330
1F
100
AcDbEntity
  8
1
  6
Continuous
 62
     7
370
     9
100
AcDbLine
 10
186.1137067083332
 20
773.0971586294069
 30
0.0
 11
216.8210983750295
 21
773.0971586294069
 31
0.0
  0
LINE
  5
2E5
330
1F
100
AcDbEntity
  8
1
  6
Continuous
 62
     7
370
     9
100
AcDbLine
 10
216.8210983750295
 20
807.0971586294069
 30
0.0
 11
216.8210983750295
 21
773.0971586294069
 31
0.0
  0
LINE
  5
2E6
330
1F
100
AcDbEntity
  8
1
  6
Continuous
 62
     7
370
     9
100
AcDbLine
 10
186.1137067083334
 20
807.0971586294069
 30
0.0
 11
216.8210983750295
 21
807.0971586294069
 31
0.0
  0
LINE
  5
2E7
330
1F
100
AcDbEntity
  8
1
  6
Continuous
 62
     7
370
     9
100
AcDbLine
 10
218.8210983750295
 20
805.0971586294069
 30
0.0
 11
218.8210983750295
 21
775.0971586294069
 31
0.0
  0
LINE
  5
2E8
330
1F
100
AcDbEntity
  8
1
  6
Continuous
 62
     7
370
     9
100
AcDbLine
 10
185.8210983750295
 20
806.9282211294068
 30
0.0
 11
186.1137067083334
 21
807.0971586294069
 31
0.0
  0
LINE
  5
2E9
330
1F
100
AcDbEntity
  8
1
  6
Continuous
 62
     7
370
     9
100
AcDbLine
 10
185.8210983750294
 20
773.2660961294068
 30
0.0
 11
186.1137067083332
 21
773.0971586294069
 31
0.0
  0
LINE
  5
2EA
330
1F
100
AcDbEntity
  8
1
  6
Continuous
 62
     7
370
     9
100
AcDbLine
 10
170.885614504062
 20
773.7328300003746
 30
0.0
 11
185.8210983750295
 21
773.2660961294068
 31
0.0
  0
LINE
  5
2EB
330
1F
100
AcDbEntity
  8
1
  6
Continuous
 62
     7
370
     9
100
AcDbLine
 10
185.8210983750295
 20
806.9282211294069
 30
0.0
 11
185.8210983750295
 21
773.2660961294068
 31
0.0
  0
LINE
  5
2EC
330
1F
100
AcDbEntity
  8
1
  6
Continuous
 62
     7
370
     9
100
AcDbLine
 10
168.8210983750295
 20
804.3969711294069
 30
0.0
 11
168.8210983750295
 21
775.7973461294068
 31
0.0
  0
LINE
  5
2ED
330
1F
100
AcDbEntity
  8
1
  6
Continuous
 62
     7
370
     9
100
AcDbLine
 10
169.3589048266424
 20
804.9347775810198
 30
0.0
 11
185.8210983750297
 21
805.4492211294069
 31
0.0
  0
LINE
  5
2EE
330
1F
100
AcDbEntity
  8
1
  6
Continuous
 62
     7
370
     9
100
AcDbLine
 10
185.8210983750297
 20
805.4492211294071
 30
0.0
 11
188.6754098527275
 21
807.0971586294069
 31
0.0
  0
LINE
  5
2EF
330
1F
100
AcDbEntity
  8
1
  6
Continuous
 62
     7
370
     9
100
AcDbLine
 10
170.8856145040619
 20
806.4614872584391
 30
0.0
 11
185.8210983750294
 21
806.9282211294069
 31
0.0
  0
LINE
  5
2F0
330
1F
100
AcDbEntity
  8
1
  6
Continuous
 62
     7
370
     9
100
AcDbLine
 10
185.8210983750295
 20
774.7450961294066
 30
0.0
 11
188.6754098527274
 21
773.0971586294069
 31
0.0
  0
LINE
  5
2F1
330
1F
100
AcDbEntity
  8
1
  6
Continuous
 62
     7
370
     9
100
AcDbLine
 10
168.8210983750294
 20
775.7973461294068
 30
0.0
 11
170.8856145040617
 21
773.7328300003746
 31
0.0
  0
LINE
  5
2F2
330
1F
100
AcDbEntity
  8
1
  6
Continuous
 62
     7
370
     9
100
AcDbLine
 10
170.8856145040619
 20
806.4614872584391
 30
0.0
 11
170.8856145040619
 21
773.7328300003746
 31
0.0
  0
LINE
  5
2F3
330
1F
100
AcDbEntity
  8
1
  6
Continuous
 62
     7
370
     9
100
AcDbLine
 10
169.3589048266425
 20
775.259539677794
 30
0.0
 11
185.8210983750298
 21
774.7450961294069
 31
0.0
  0
LINE
  5
2F4
330
1F
100
AcDbEntity
  8
1
  6
Continuous
 62
     7
370
     9
100
AcDbLine
 10
168.8210983750295
 20
804.3969711294068
 30
0.0
 11
170.8856145040617
 21
806.4614872584391
 31
0.0
  0
LINE
  5
2F5
330
1F
100
AcDbEntity
  8
1
  6
Continuous
 62
     7
370
     9
100
AcDbLine
 10
216.8210983750292
 20
807.0971586294066
 30
0.0
 11
218.8210983750292
 21
805.0971586294066
 31
0.0
  0
LINE
  5
2F6
330
1F
100
AcDbEntity
  8
1
  6
Continuous
 62
     7
370
     9
100
AcDbLine
 10
218.8210983750292
 20
775.0971586294072
 30
0.0
 11
216.8210983750292
 21
773.0971586294072
 31
0.0
  0
CIRCLE
  5
2F7
330
1F
100
AcDbEntity
  8
1
  6
Continuous
 62
     7
370
     9
100
AcDbCircle
 10
118.8210983750295
 20
790.0971586294067
 30
0.0
 40
17.0
  0
CIRCLE
  5
2F8
330
1F
100
AcDbEntity
  8
1
  6
Continuous
 62
     7
370
     9
100
AcDbCircle
 10
118.8210983750295
 20
790.0971586294067
 30
0.0
 40
16.6245
  0
CIRCLE
  5
2F9
330
1F
100
AcDbEntity
  8
1
  6
Continuous
 62
     7
370
     9
100
AcDbCircle
 10
118.8210983750295
 20
790.0971586294067
 30
0.0
 40
15.1455
  0
CIRCLE
  5
2FA
330
1F
100
AcDbEntity
  8
1
  6
Continuous
 62
     7
370
     9
100
AcDbCircle
 10
118.8210983750295
 20
790.0971586294067
 30
0.0
 40
14.0
  0
LINE
  5
2FB
330
1F
100
AcDbEntity
  8
1
  6
Continuous
 62
     7
370
     9
100
AcDbLine
 10
290.8856145040619
 20
518.3831786646891
 30
0.0
 11
290.8856145040619
 21
477.1378964066246
 31
0.0
  0
LINE
  5
2FC
330
1F
100
AcDbEntity
  8
1
  6
Continuous
 62
     7
370
     9
100
AcDbLine
 10
308.82109837503
 20
478.0564125356567
 30
0.0
 11
311.5293922240598
 21
476.4927783528747
 31
0.0
  0
LINE
  5
2FD
330
1F
100
AcDbEntity
  8
1
  6
Continuous
 62
     7
370
     9
100
AcDbLine
 10
289.3589048266427
 20
478.664606084044
 30
0.0
 11
308.8210983750302
 21
478.0564125356569
 31
0.0
  0
LINE
  5
2FE
330
1F
100
AcDbEntity
  8
1
  6
Continuous
 62
     7
370
     9
100
AcDbLine
 10
288.8210983750296
 20
516.318662535657
 30
0.0
 11
290.8856145040619
 21
518.3831786646892
 31
0.0
  0
LINE
  5
2FF
330
1F
100
AcDbEntity
  8
1
  6
Continuous
 62
     7
370
     9
100
AcDbLine
 10
290.8856145040619
 20
518.3831786646891
 30
0.0
 11
308.8210983750297
 21
518.9436625356569
 31
0.0
  0
LINE
  5
300
330
1F
100
AcDbEntity
  8
1
  6
Continuous
 62
     7
370
     9
100
AcDbLine
 10
308.8210983750299
 20
517.4646625356571
 30
0.0
 11
311.671837497937
 21
519.1105375356569
 31
0.0
  0
LINE
  5
301
330
1F
100
AcDbEntity
  8
1
  6
Continuous
 62
     7
370
     9
100
AcDbLine
 10
289.3589048266426
 20
516.8564689872699
 30
0.0
 11
308.8210983750303
 21
517.4646625356569
 31
0.0
  0
LINE
  5
302
330
1F
100
AcDbEntity
  8
1
  6
Continuous
 62
     7
370
     9
100
AcDbLine
 10
290.885614504062
 20
477.1378964066246
 30
0.0
 11
308.8210983750297
 21
476.5774125356569
 31
0.0
  0
LINE
  5
303
330
1F
100
AcDbEntity
  8
1
  6
Continuous
 62
     7
370
     9
100
AcDbLine
 10
308.8210983750297
 20
518.9436625356569
 30
0.0
 11
308.8210983750297
 21
476.5774125356569
 31
0.0
  0
LINE
  5
304
330
1F
100
AcDbEntity
  8
1
  6
Continuous
 62
     7
370
     9
100
AcDbLine
 10
288.8210983750297
 20
479.2024125356568
 30
0.0
 11
290.8856145040619
 21
477.1378964066246
 31
0.0
  0
LINE
  5
305
330
1F
100
AcDbEntity
  8
1
  6
Continuous
 62
     7
370
     9
100
AcDbLine
 10
288.8210983750297
 20
516.3186625356569
 30
0.0
 11
288.8210983750297
 21
479.2024125356568
 31
0.0
  0
LINE
  5
306
330
1F
100
AcDbEntity
  8
1
  6
Continuous
 62
     7
370
     9
100
AcDbLine
 10
308.8210983750297
 20
476.5774125356568
 30
0.0
 11
309.1101343535427
 21
476.4105375356569
 31
0.0
  0
LINE
  5
307
330
1F
100
AcDbEntity
  8
1
  6
Continuous
 62
     7
370
     9
100
AcDbLine
 10
308.8210983750299
 20
518.943662535657
 30
0.0
 11
309.1101343535428
 21
519.110537535657
 31
0.0
  0
LINE
  5
308
330
1F
100
AcDbEntity
  8
1
  6
Continuous
 62
     7
370
     9
100
AcDbLine
 10
488.8210983750297
 20
516.6105375356569
 30
0.0
 11
488.8210983750297
 21
478.9105375356569
 31
0.0
  0
LINE
  5
309
330
1F
100
AcDbEntity
  8
1
  6
Continuous
 62
     7
370
     9
100
AcDbLine
 10
309.1101343535428
 20
519.1105375356569
 30
0.0
 11
486.3210983750297
 21
519.1105375356569
 31
0.0
  0
LINE
  5
30A
330
1F
100
AcDbEntity
  8
1
  6
Continuous
 62
     7
370
     9
100
AcDbLine
 10
309.1101343535425
 20
476.4105375356569
 30
0.0
 11
486.3210983750297
 21
476.4105375356569
 31
0.0
  0
LINE
  5
30B
330
1F
100
AcDbEntity
  8
1
  6
Continuous
 62
     7
370
     9
100
AcDbLine
 10
486.3210983750297
 20
519.1105375356569
 30
0.0
 11
486.3210983750297
 21
476.4105375356569
 31
0.0
  0
LINE
  5
30C
330
1F
100
AcDbEntity
  8
1
  6
Continuous
 62
     7
370
     9
100
AcDbLine
 10
486.3210983750299
 20
519.110537535657
 30
0.0
 11
488.8210983750299
 21
516.610537535657
 31
0.0
  0
LINE
  5
30D
330
1F
100
AcDbEntity
  8
1
  6
Continuous
 62
     7
370
     9
100
AcDbLine
 10
488.8210983750297
 20
478.9105375356569
 30
0.0
 11
486.3210983750297
 21
476.4105375356569
 31
0.0
  0
LINE
  5
30E
330
1F
100
AcDbEntity
  8
1
  6
Continuous
 62
     7
370
     9
100
AcDbLine
 10
359.1101343535425
 20
546.4105375356569
 30
0.0
 11
486.3210983750297
 21
546.4105375356569
 31
0.0
  0
LINE
  5
30F
330
1F
100
AcDbEntity
  8
1
  6
Continuous
 62
     7
370
     9
100
AcDbLine
 10
359.1101343535428
 20
589.1105375356569
 30
0.0
 11
486.3210983750297
 21
589.1105375356569
 31
0.0
  0
LINE
  5
310
330
1F
100
AcDbEntity
  8
1
  6
Continuous
 62
     7
370
     9
100
AcDbLine
 10
486.3210983750297
 20
589.1105375356569
 30
0.0
 11
486.3210983750297
 21
546.4105375356569
 31
0.0
  0
LINE
  5
311
330
1F
100
AcDbEntity
  8
1
  6
Continuous
 62
     7
370
     9
100
AcDbLine
 10
488.8210983750297
 20
586.6105375356569
 30
0.0
 11
488.8210983750297
 21
548.9105375356569
 31
0.0
  0
LINE
  5
312
330
1F
100
AcDbEntity
  8
1
  6
Continuous
 62
     7
370
     9
100
AcDbLine
 10
358.8210983750299
 20
588.943662535657
 30
0.0
 11
359.1101343535428
 21
589.1105375356569
 31
0.0
  0
LINE
  5
313
330
1F
100
AcDbEntity
  8
1
  6
Continuous
 62
     7
370
     9
100
AcDbLine
 10
358.8210983750297
 20
546.5774125356569
 30
0.0
 11
359.1101343535427
 21
546.4105375356569
 31
0.0
  0
LINE
  5
314
330
1F
100
AcDbEntity
  8
1
  6
Continuous
 62
     7
370
     9
100
AcDbLine
 10
338.8210983750297
 20
586.3186625356569
 30
0.0
 11
338.8210983750297
 21
549.2024125356569
 31
0.0
  0
LINE
  5
315
330
1F
100
AcDbEntity
  8
1
  6
Continuous
 62
     7
370
     9
100
AcDbLine
 10
338.8210983750297
 20
549.2024125356569
 30
0.0
 11
340.8856145040619
 21
547.1378964066246
 31
0.0
  0
LINE
  5
316
330
1F
100
AcDbEntity
  8
1
  6
Continuous
 62
     7
370
     9
100
AcDbLine
 10
358.8210983750297
 20
588.9436625356569
 30
0.0
 11
358.8210983750297
 21
546.5774125356569
 31
0.0
  0
LINE
  5
317
330
1F
100
AcDbEntity
  8
1
  6
Continuous
 62
     7
370
     9
100
AcDbLine
 10
340.885614504062
 20
547.1378964066246
 30
0.0
 11
358.8210983750297
 21
546.5774125356569
 31
0.0
  0
LINE
  5
318
330
1F
100
AcDbEntity
  8
1
  6
Continuous
 62
     7
370
     9
100
AcDbLine
 10
339.3589048266426
 20
586.8564689872697
 30
0.0
 11
358.8210983750303
 21
587.4646625356569
 31
0.0
  0
LINE
  5
319
330
1F
100
AcDbEntity
  8
1
  6
Continuous
 62
     7
370
     9
100
AcDbLine
 10
358.8210983750299
 20
587.4646625356571
 30
0.0
 11
361.671837497937
 21
589.1105375356569
 31
0.0
  0
LINE
  5
31A
330
1F
100
AcDbEntity
  8
1
  6
Continuous
 62
     7
370
     9
100
AcDbLine
 10
340.8856145040619
 20
588.3831786646891
 30
0.0
 11
358.8210983750297
 21
588.9436625356569
 31
0.0
  0
LINE
  5
31B
330
1F
100
AcDbEntity
  8
1
  6
Continuous
 62
     7
370
     9
100
AcDbLine
 10
338.8210983750296
 20
586.318662535657
 30
0.0
 11
340.8856145040619
 21
588.3831786646892
 31
0.0
  0
LINE
  5
31C
330
1F
100
AcDbEntity
  8
1
  6
Continuous
 62
     7
370
     9
100
AcDbLine
 10
339.3589048266427
 20
548.664606084044
 30
0.0
 11
358.8210983750303
 21
548.0564125356569
 31
0.0
  0
LINE
  5
31D
330
1F
100
AcDbEntity
  8
1
  6
Continuous
 62
     7
370
     9
100
AcDbLine
 10
358.8210983750299
 20
548.0564125356567
 30
0.0
 11
361.5293922240598
 21
546.4927783528747
 31
0.0
  0
LINE
  5
31E
330
1F
100
AcDbEntity
  8
1
  6
Continuous
 62
     7
370
     9
100
AcDbLine
 10
340.8856145040619
 20
588.3831786646891
 30
0.0
 11
340.8856145040619
 21
547.1378964066247
 31
0.0
  0
LINE
  5
31F
330
1F
100
AcDbEntity
  8
1
  6
Continuous
 62
     7
370
     9
100
AcDbLine
 10
486.3210983750299
 20
589.110537535657
 30
0.0
 11
488.8210983750299
 21
586.610537535657
 31
0.0
  0
LINE
  5
320
330
1F
100
AcDbEntity
  8
1
  6
Continuous
 62
     7
370
     9
100
AcDbLine
 10
488.8210983750297
 20
548.910537535657
 30
0.0
 11
486.3210983750299
 21
546.410537535657
 31
0.0
  0
LINE
  5
321
330
1F
100
AcDbEntity
  8
1
  6
Continuous
 62
     7
370
     9
100
AcDbLine
 10
384.1101343535425
 20
616.4105375356569
 30
0.0
 11
486.3210983750297
 21
616.4105375356569
 31
0.0
  0
LINE
  5
322
330
1F
100
AcDbEntity
  8
1
  6
Continuous
 62
     7
370
     9
100
AcDbLine
 10
384.1101343535428
 20
659.1105375356569
 30
0.0
 11
486.3210983750297
 21
659.1105375356569
 31
0.0
  0
LINE
  5
323
330
1F
100
AcDbEntity
  8
1
  6
Continuous
 62
     7
370
     9
100
AcDbLine
 10
486.3210983750297
 20
659.1105375356569
 30
0.0
 11
486.3210983750297
 21
616.4105375356569
 31
0.0
  0
LINE
  5
324
330
1F
100
AcDbEntity
  8
1
  6
Continuous
 62
     7
370
     9
100
AcDbLine
 10
488.8210983750297
 20
656.6105375356569
 30
0.0
 11
488.8210983750297
 21
618.9105375356569
 31
0.0
  0
LINE
  5
325
330
1F
100
AcDbEntity
  8
1
  6
Continuous
 62
     7
370
     9
100
AcDbLine
 10
383.8210983750299
 20
658.943662535657
 30
0.0
 11
384.1101343535429
 21
659.1105375356569
 31
0.0
  0
LINE
  5
326
330
1F
100
AcDbEntity
  8
1
  6
Continuous
 62
     7
370
     9
100
AcDbLine
 10
383.8210983750297
 20
616.5774125356568
 30
0.0
 11
384.1101343535427
 21
616.4105375356569
 31
0.0
  0
LINE
  5
327
330
1F
100
AcDbEntity
  8
1
  6
Continuous
 62
     7
370
     9
100
AcDbLine
 10
363.8210983750297
 20
656.3186625356569
 30
0.0
 11
363.8210983750297
 21
619.2024125356568
 31
0.0
  0
LINE
  5
328
330
1F
100
AcDbEntity
  8
1
  6
Continuous
 62
     7
370
     9
100
AcDbLine
 10
363.8210983750297
 20
619.2024125356568
 30
0.0
 11
365.8856145040619
 21
617.1378964066246
 31
0.0
  0
LINE
  5
329
330
1F
100
AcDbEntity
  8
1
  6
Continuous
 62
     7
370
     9
100
AcDbLine
 10
383.8210983750297
 20
658.9436625356569
 30
0.0
 11
383.8210983750297
 21
616.5774125356569
 31
0.0
  0
LINE
  5
32A
330
1F
100
AcDbEntity
  8
1
  6
Continuous
 62
     7
370
     9
100
AcDbLine
 10
365.885614504062
 20
617.1378964066246
 30
0.0
 11
383.8210983750297
 21
616.5774125356569
 31
0.0
  0
LINE
  5
32B
330
1F
100
AcDbEntity
  8
1
  6
Continuous
 62
     7
370
     9
100
AcDbLine
 10
364.3589048266426
 20
656.8564689872699
 30
0.0
 11
383.8210983750303
 21
657.4646625356569
 31
0.0
  0
LINE
  5
32C
330
1F
100
AcDbEntity
  8
1
  6
Continuous
 62
     7
370
     9
100
AcDbLine
 10
383.8210983750299
 20
657.4646625356571
 30
0.0
 11
386.671837497937
 21
659.1105375356569
 31
0.0
  0
LINE
  5
32D
330
1F
100
AcDbEntity
  8
1
  6
Continuous
 62
     7
370
     9
100
AcDbLine
 10
365.8856145040619
 20
658.3831786646892
 30
0.0
 11
383.8210983750297
 21
658.9436625356569
 31
0.0
  0
LINE
  5
32E
330
1F
100
AcDbEntity
  8
1
  6
Continuous
 62
     7
370
     9
100
AcDbLine
 10
363.8210983750296
 20
656.318662535657
 30
0.0
 11
365.8856145040619
 21
658.3831786646892
 31
0.0
  0
LINE
  5
32F
330
1F
100
AcDbEntity
  8
1
  6
Continuous
 62
     7
370
     9
100
AcDbLine
 10
364.3589048266427
 20
618.664606084044
 30
0.0
 11
383.8210983750302
 21
618.0564125356568
 31
0.0
  0
LINE
  5
330
330
1F
100
AcDbEntity
  8
1
  6
Continuous
 62
     7
370
     9
100
AcDbLine
 10
383.8210983750299
 20
618.0564125356567
 30
0.0
 11
386.5293922240598
 21
616.4927783528747
 31
0.0
  0
LINE
  5
331
330
1F
100
AcDbEntity
  8
1
  6
Continuous
 62
     7
370
     9
100
AcDbLine
 10
365.8856145040619
 20
658.3831786646892
 30
0.0
 11
365.8856145040619
 21
617.1378964066246
 31
0.0
  0
LINE
  5
332
330
1F
100
AcDbEntity
  8
1
  6
Continuous
 62
     7
370
     9
100
AcDbLine
 10
486.3210983750301
 20
659.1105375356572
 30
0.0
 11
488.8210983750301
 21
656.6105375356572
 31
0.0
  0
LINE
  5
333
330
1F
100
AcDbEntity
  8
1
  6
Continuous
 62
     7
370
     9
100
AcDbLine
 10
488.8210983750297
 20
618.9105375356569
 30
0.0
 11
486.3210983750297
 21
616.4105375356569
 31
0.0
  0
LINE
  5
334
330
1F
100
AcDbEntity
  8
1
  6
Continuous
 62
     7
370
     9
100
AcDbLine
 10
409.1101343535427
 20
686.4105375356569
 30
0.0
 11
486.3210983750297
 21
686.4105375356569
 31
0.0
  0
LINE
  5
335
330
1F
100
AcDbEntity
  8
1
  6
Continuous
 62
     7
370
     9
100
AcDbLine
 10
409.1101343535428
 20
729.1105375356569
 30
0.0
 11
486.3210983750297
 21
729.1105375356569
 31
0.0
  0
LINE
  5
336
330
1F
100
AcDbEntity
  8
1
  6
Continuous
 62
     7
370
     9
100
AcDbLine
 10
486.3210983750297
 20
729.1105375356569
 30
0.0
 11
486.3210983750297
 21
686.4105375356569
 31
0.0
  0
LINE
  5
337
330
1F
100
AcDbEntity
  8
1
  6
Continuous
 62
     7
370
     9
100
AcDbLine
 10
488.8210983750297
 20
726.6105375356569
 30
0.0
 11
488.8210983750297
 21
688.9105375356569
 31
0.0
  0
LINE
  5
338
330
1F
100
AcDbEntity
  8
1
  6
Continuous
 62
     7
370
     9
100
AcDbLine
 10
408.8210983750298
 20
728.943662535657
 30
0.0
 11
409.1101343535428
 21
729.1105375356569
 31
0.0
  0
LINE
  5
339
330
1F
100
AcDbEntity
  8
1
  6
Continuous
 62
     7
370
     9
100
AcDbLine
 10
408.8210983750296
 20
686.5774125356569
 30
0.0
 11
409.1101343535427
 21
686.4105375356569
 31
0.0
  0
LINE
  5
33A
330
1F
100
AcDbEntity
  8
1
  6
Continuous
 62
     7
370
     9
100
AcDbLine
 10
388.8210983750297
 20
726.3186625356569
 30
0.0
 11
388.8210983750297
 21
689.2024125356569
 31
0.0
  0
LINE
  5
33B
330
1F
100
AcDbEntity
  8
1
  6
Continuous
 62
     7
370
     9
100
AcDbLine
 10
388.8210983750296
 20
689.2024125356568
 30
0.0
 11
390.8856145040619
 21
687.1378964066246
 31
0.0
  0
LINE
  5
33C
330
1F
100
AcDbEntity
  8
1
  6
Continuous
 62
     7
370
     9
100
AcDbLine
 10
408.8210983750297
 20
728.9436625356569
 30
0.0
 11
408.8210983750297
 21
686.5774125356569
 31
0.0
  0
LINE
  5
33D
330
1F
100
AcDbEntity
  8
1
  6
Continuous
 62
     7
370
     9
100
AcDbLine
 10
390.885614504062
 20
687.1378964066246
 30
0.0
 11
408.8210983750296
 21
686.5774125356569
 31
0.0
  0
LINE
  5
33E
330
1F
100
AcDbEntity
  8
1
  6
Continuous
 62
     7
370
     9
100
AcDbLine
 10
389.3589048266426
 20
726.8564689872699
 30
0.0
 11
408.8210983750303
 21
727.4646625356569
 31
0.0
  0
LINE
  5
33F
330
1F
100
AcDbEntity
  8
1
  6
Continuous
 62
     7
370
     9
100
AcDbLine
 10
408.8210983750299
 20
727.4646625356571
 30
0.0
 11
411.671837497937
 21
729.1105375356569
 31
0.0
  0
LINE
  5
340
330
1F
100
AcDbEntity
  8
1
  6
Continuous
 62
     7
370
     9
100
AcDbLine
 10
390.8856145040619
 20
728.3831786646892
 30
0.0
 11
408.8210983750297
 21
728.943662535657
 31
0.0
  0
LINE
  5
341
330
1F
100
AcDbEntity
  8
1
  6
Continuous
 62
     7
370
     9
100
AcDbLine
 10
388.8210983750297
 20
726.318662535657
 30
0.0
 11
390.8856145040619
 21
728.3831786646892
 31
0.0
  0
LINE
  5
342
330
1F
100
AcDbEntity
  8
1
  6
Continuous
 62
     7
370
     9
100
AcDbLine
 10
389.3589048266427
 20
688.664606084044
 30
0.0
 11
408.8210983750303
 21
688.0564125356569
 31
0.0
  0
LINE
  5
343
330
1F
100
AcDbEntity
  8
1
  6
Continuous
 62
     7
370
     9
100
AcDbLine
 10
408.8210983750299
 20
688.0564125356567
 30
0.0
 11
411.52939222406
 21
686.4927783528747
 31
0.0
  0
LINE
  5
344
330
1F
100
AcDbEntity
  8
1
  6
Continuous
 62
     7
370
     9
100
AcDbLine
 10
390.8856145040619
 20
728.3831786646892
 30
0.0
 11
390.8856145040619
 21
687.1378964066247
 31
0.0
  0
LINE
  5
345
330
1F
100
AcDbEntity
  8
1
  6
Continuous
 62
     7
370
     9
100
AcDbLine
 10
486.3210983750301
 20
729.1105375356572
 30
0.0
 11
488.8210983750301
 21
726.6105375356572
 31
0.0
  0
LINE
  5
346
330
1F
100
AcDbEntity
  8
1
  6
Continuous
 62
     7
370
     9
100
AcDbLine
 10
488.8210983750297
 20
688.9105375356569
 30
0.0
 11
486.3210983750297
 21
686.410537535657
 31
0.0
  0
LINE
  5
347
330
1F
100
AcDbEntity
  8
1
  6
Continuous
 62
     7
370
     9
100
AcDbLine
 10
434.1101343535427
 20
756.4105375356569
 30
0.0
 11
486.3210983750297
 21
756.4105375356569
 31
0.0
  0
LINE
  5
348
330
1F
100
AcDbEntity
  8
1
  6
Continuous
 62
     7
370
     9
100
AcDbLine
 10
434.1101343535428
 20
799.1105375356569
 30
0.0
 11
486.3210983750297
 21
799.1105375356569
 31
0.0
  0
LINE
  5
349
330
1F
100
AcDbEntity
  8
1
  6
Continuous
 62
     7
370
     9
100
AcDbLine
 10
486.3210983750297
 20
799.1105375356569
 30
0.0
 11
486.3210983750297
 21
756.4105375356569
 31
0.0
  0
LINE
  5
34A
330
1F
100
AcDbEntity
  8
1
  6
Continuous
 62
     7
370
     9
100
AcDbLine
 10
488.8210983750297
 20
796.6105375356569
 30
0.0
 11
488.8210983750297
 21
758.9105375356569
 31
0.0
  0
LINE
  5
34B
330
1F
100
AcDbEntity
  8
1
  6
Continuous
 62
     7
370
     9
100
AcDbLine
 10
433.8210983750299
 20
798.943662535657
 30
0.0
 11
434.1101343535428
 21
799.1105375356569
 31
0.0
  0
LINE
  5
34C
330
1F
100
AcDbEntity
  8
1
  6
Continuous
 62
     7
370
     9
100
AcDbLine
 10
433.8210983750296
 20
756.5774125356568
 30
0.0
 11
434.1101343535427
 21
756.4105375356569
 31
0.0
  0
LINE
  5
34D
330
1F
100
AcDbEntity
  8
1
  6
Continuous
 62
     7
370
     9
100
AcDbLine
 10
413.8210983750297
 20
796.3186625356569
 30
0.0
 11
413.8210983750297
 21
759.2024125356569
 31
0.0
  0
LINE
  5
34E
330
1F
100
AcDbEntity
  8
1
  6
Continuous
 62
     7
370
     9
100
AcDbLine
 10
413.8210983750296
 20
759.2024125356568
 30
0.0
 11
415.8856145040619
 21
757.1378964066246
 31
0.0
  0
LINE
  5
34F
330
1F
100
AcDbEntity
  8
1
  6
Continuous
 62
     7
370
     9
100
AcDbLine
 10
433.8210983750297
 20
798.9436625356569
 30
0.0
 11
433.8210983750297
 21
756.5774125356569
 31
0.0
  0
LINE
  5
350
330
1F
100
AcDbEntity
  8
1
  6
Continuous
 62
     7
370
     9
100
AcDbLine
 10
415.885614504062
 20
757.1378964066246
 30
0.0
 11
433.8210983750296
 21
756.5774125356569
 31
0.0
  0
LINE
  5
351
330
1F
100
AcDbEntity
  8
1
  6
Continuous
 62
     7
370
     9
100
AcDbLine
 10
414.3589048266426
 20
796.8564689872699
 30
0.0
 11
433.8210983750303
 21
797.4646625356569
 31
0.0
  0
LINE
  5
352
330
1F
100
AcDbEntity
  8
1
  6
Continuous
 62
     7
370
     9
100
AcDbLine
 10
433.8210983750299
 20
797.4646625356571
 30
0.0
 11
436.671837497937
 21
799.1105375356569
 31
0.0
  0
LINE
  5
353
330
1F
100
AcDbEntity
  8
1
  6
Continuous
 62
     7
370
     9
100
AcDbLine
 10
415.8856145040619
 20
798.3831786646892
 30
0.0
 11
433.8210983750296
 21
798.9436625356569
 31
0.0
  0
LINE
  5
354
330
1F
100
AcDbEntity
  8
1
  6
Continuous
 62
     7
370
     9
100
AcDbLine
 10
413.8210983750297
 20
796.3186625356569
 30
0.0
 11
415.8856145040619
 21
798.3831786646892
 31
0.0
  0
LINE
  5
355
330
1F
100
AcDbEntity
  8
1
  6
Continuous
 62
     7
370
     9
100
AcDbLine
 10
414.3589048266427
 20
758.664606084044
 30
0.0
 11
433.8210983750303
 21
758.0564125356569
 31
0.0
  0
LINE
  5
356
330
1F
100
AcDbEntity
  8
1
  6
Continuous
 62
     7
370
     9
100
AcDbLine
 10
433.8210983750299
 20
758.0564125356567
 30
0.0
 11
436.52939222406
 21
756.4927783528747
 31
0.0
  0
LINE
  5
357
330
1F
100
AcDbEntity
  8
1
  6
Continuous
 62
     7
370
     9
100
AcDbLine
 10
415.8856145040619
 20
798.3831786646891
 30
0.0
 11
415.8856145040619
 21
757.1378964066247
 31
0.0
  0
LINE
  5
358
330
1F
100
AcDbEntity
  8
1
  6
Continuous
 62
     7
370
     9
100
AcDbLine
 10
486.3210983750301
 20
799.1105375356572
 30
0.0
 11
488.8210983750301
 21
796.6105375356572
 31
0.0
  0
LINE
  5
359
330
1F
100
AcDbEntity
  8
1
  6
Continuous
 62
     7
370
     9
100
AcDbLine
 10
488.8210983750297
 20
758.910537535657
 30
0.0
 11
486.3210983750297
 21
756.410537535657
 31
0.0
  0
CIRCLE
  5
35A
330
1F
100
AcDbEntity
  8
1
  6
Continuous
 62
     7
370
     9
100
AcDbCircle
 10
363.8210983750297
 20
777.7605375356569
 30
0.0
 40
21.35
  0
CIRCLE
  5
35B
330
1F
100
AcDbEntity
  8
1
  6
Continuous
 62
     7
370
     9
100
AcDbCircle
 10
363.8210983750297
 20
777.7605375356569
 30
0.0
 40
20.955
  0
CIRCLE
  5
35C
330
1F
100
AcDbEntity
  8
1
  6
Continuous
 62
     7
370
     9
100
AcDbCircle
 10
363.8210983750297
 20
777.7605375356569
 30
0.0
 40
19.476
  0
CIRCLE
  5
35D
330
1F
100
AcDbEntity
  8
1
  6
Continuous
 62
     7
370
     9
100
AcDbCircle
 10
363.8210983750297
 20
777.7605375356569
 30
0.0
 40
17.85
  0
LINE
  5
35E
330
1F
100
AcDbEntity
  8
1
  6
Continuous
 62
     7
370
     9
100
AcDbLine
 10
579.1161965313694
 20
476.3822699655925
 30
0.0
 11
756.3210983750299
 21
476.3822699655925
 31
0.0
  0
LINE
  5
35F
330
1F
100
AcDbEntity
  8
1
  6
Continuous
 62
     7
370
     9
100
AcDbLine
 10
758.8210983750299
 20
522.4822699655924
 30
0.0
 11
758.8210983750299
 21
478.8822699655925
 31
0.0
  0
LINE
  5
360
330
1F
100
AcDbEntity
  8
1
  6
Continuous
 62
     7
370
     9
100
AcDbLine
 10
579.1161965313694
 20
524.9822699655924
 30
0.0
 11
756.3210983750299
 21
524.9822699655924
 31
0.0
  0
LINE
  5
361
330
1F
100
AcDbEntity
  8
1
  6
Continuous
 62
     7
370
     9
100
AcDbLine
 10
578.8210983750301
 20
524.8118949655926
 30
0.0
 11
579.1161965313694
 21
524.9822699655925
 31
0.0
  0
LINE
  5
362
330
1F
100
AcDbEntity
  8
1
  6
Continuous
 62
     7
370
     9
100
AcDbLine
 10
578.8210983750299
 20
476.5526449655925
 30
0.0
 11
579.1161965313694
 21
476.3822699655926
 31
0.0
  0
LINE
  5
363
330
1F
100
AcDbEntity
  8
1
  6
Continuous
 62
     7
370
     9
100
AcDbLine
 10
558.8210983750301
 20
479.1776449655924
 30
0.0
 11
560.8856145040623
 21
477.1131288365602
 31
0.0
  0
LINE
  5
364
330
1F
100
AcDbEntity
  8
1
  6
Continuous
 62
     7
370
     9
100
AcDbLine
 10
578.8210983750299
 20
524.8118949655925
 30
0.0
 11
578.8210983750299
 21
476.5526449655925
 31
0.0
  0
LINE
  5
365
330
1F
100
AcDbEntity
  8
1
  6
Continuous
 62
     7
370
     9
100
AcDbLine
 10
559.358904826643
 20
522.7247014172054
 30
0.0
 11
578.8210983750304
 21
523.3328949655926
 31
0.0
  0
LINE
  5
366
330
1F
100
AcDbEntity
  8
1
  6
Continuous
 62
     7
370
     9
100
AcDbLine
 10
578.8210983750301
 20
523.3328949655928
 30
0.0
 11
581.6778996757636
 21
524.9822699655925
 31
0.0
  0
LINE
  5
367
330
1F
100
AcDbEntity
  8
1
  6
Continuous
 62
     7
370
     9
100
AcDbLine
 10
560.8856145040623
 20
524.2514110946248
 30
0.0
 11
578.8210983750297
 21
524.8118949655925
 31
0.0
  0
LINE
  5
368
330
1F
100
AcDbEntity
  8
1
  6
Continuous
 62
     7
370
     9
100
AcDbLine
 10
558.8210983750299
 20
522.1868949655925
 30
0.0
 11
558.8210983750299
 21
479.1776449655924
 31
0.0
  0
LINE
  5
369
330
1F
100
AcDbEntity
  8
1
  6
Continuous
 62
     7
370
     9
100
AcDbLine
 10
559.358904826643
 20
478.6398385139796
 30
0.0
 11
578.8210983750306
 21
478.0316449655925
 31
0.0
  0
LINE
  5
36A
330
1F
100
AcDbEntity
  8
1
  6
Continuous
 62
     7
370
     9
100
AcDbLine
 10
560.8856145040621
 20
524.2514110946248
 30
0.0
 11
560.8856145040621
 21
477.1131288365602
 31
0.0
  0
LINE
  5
36B
330
1F
100
AcDbEntity
  8
1
  6
Continuous
 62
     7
370
     9
100
AcDbLine
 10
560.8856145040623
 20
477.1131288365602
 30
0.0
 11
578.8210983750299
 21
476.5526449655925
 31
0.0
  0
LINE
  5
36C
330
1F
100
AcDbEntity
  8
1
  6
Continuous
 62
     7
370
     9
100
AcDbLine
 10
578.8210983750301
 20
478.0316449655922
 30
0.0
 11
581.6778996757638
 21
476.3822699655925
 31
0.0
  0
LINE
  5
36D
330
1F
100
AcDbEntity
  8
1
  6
Continuous
 62
     7
370
     9
100
AcDbLine
 10
558.8210983750301
 20
522.1868949655926
 30
0.0
 11
560.8856145040623
 21
524.2514110946249
 31
0.0
  0
LINE
  5
36E
330
1F
100
AcDbEntity
  8
1
  6
Continuous
 62
     7
370
     9
100
AcDbLine
 10
756.3210983750299
 20
524.9822699655924
 30
0.0
 11
756.3210983750299
 21
476.3822699655925
 31
0.0
  0
LINE
  5
36F
330
1F
100
AcDbEntity
  8
1
  6
Continuous
 62
     7
370
     9
100
AcDbLine
 10
756.3210983750301
 20
524.9822699655926
 30
0.0
 11
758.8210983750301
 21
522.4822699655926
 31
0.0
  0
LINE
  5
370
330
1F
100
AcDbEntity
  8
1
  6
Continuous
 62
     7
370
     9
100
AcDbLine
 10
758.8210983750297
 20
478.8822699655928
 30
0.0
 11
756.3210983750297
 21
476.3822699655927
 31
0.0
  0
LINE
  5
371
330
1F
100
AcDbEntity
  8
1
  6
Continuous
 62
     7
370
     9
100
AcDbLine
 10
629.1161965313694
 20
556.3822699655925
 30
0.0
 11
756.3210983750299
 21
556.3822699655925
 31
0.0
  0
LINE
  5
372
330
1F
100
AcDbEntity
  8
1
  6
Continuous
 62
     7
370
     9
100
AcDbLine
 10
758.8210983750299
 20
602.4822699655924
 30
0.0
 11
758.8210983750299
 21
558.8822699655925
 31
0.0
  0
LINE
  5
373
330
1F
100
AcDbEntity
  8
1
  6
Continuous
 62
     7
370
     9
100
AcDbLine
 10
629.1161965313694
 20
604.9822699655924
 30
0.0
 11
756.3210983750299
 21
604.9822699655924
 31
0.0
  0
LINE
  5
374
330
1F
100
AcDbEntity
  8
1
  6
Continuous
 62
     7
370
     9
100
AcDbLine
 10
628.8210983750301
 20
604.8118949655926
 30
0.0
 11
629.1161965313694
 21
604.9822699655925
 31
0.0
  0
LINE
  5
375
330
1F
100
AcDbEntity
  8
1
  6
Continuous
 62
     7
370
     9
100
AcDbLine
 10
628.8210983750299
 20
556.5526449655925
 30
0.0
 11
629.1161965313694
 21
556.3822699655925
 31
0.0
  0
LINE
  5
376
330
1F
100
AcDbEntity
  8
1
  6
Continuous
 62
     7
370
     9
100
AcDbLine
 10
608.8210983750301
 20
559.1776449655924
 30
0.0
 11
610.8856145040623
 21
557.1131288365602
 31
0.0
  0
LINE
  5
377
330
1F
100
AcDbEntity
  8
1
  6
Continuous
 62
     7
370
     9
100
AcDbLine
 10
628.8210983750299
 20
604.8118949655925
 30
0.0
 11
628.8210983750299
 21
556.5526449655925
 31
0.0
  0
LINE
  5
378
330
1F
100
AcDbEntity
  8
1
  6
Continuous
 62
     7
370
     9
100
AcDbLine
 10
609.358904826643
 20
602.7247014172054
 30
0.0
 11
628.8210983750304
 21
603.3328949655926
 31
0.0
  0
LINE
  5
379
330
1F
100
AcDbEntity
  8
1
  6
Continuous
 62
     7
370
     9
100
AcDbLine
 10
628.8210983750301
 20
603.3328949655928
 30
0.0
 11
631.6778996757636
 21
604.9822699655925
 31
0.0
  0
LINE
  5
37A
330
1F
100
AcDbEntity
  8
1
  6
Continuous
 62
     7
370
     9
100
AcDbLine
 10
610.8856145040623
 20
604.2514110946248
 30
0.0
 11
628.8210983750297
 21
604.8118949655925
 31
0.0
  0
LINE
  5
37B
330
1F
100
AcDbEntity
  8
1
  6
Continuous
 62
     7
370
     9
100
AcDbLine
 10
608.8210983750299
 20
602.1868949655925
 30
0.0
 11
608.8210983750299
 21
559.1776449655924
 31
0.0
  0
LINE
  5
37C
330
1F
100
AcDbEntity
  8
1
  6
Continuous
 62
     7
370
     9
100
AcDbLine
 10
609.358904826643
 20
558.6398385139796
 30
0.0
 11
628.8210983750306
 21
558.0316449655925
 31
0.0
  0
LINE
  5
37D
330
1F
100
AcDbEntity
  8
1
  6
Continuous
 62
     7
370
     9
100
AcDbLine
 10
610.8856145040621
 20
604.2514110946248
 30
0.0
 11
610.8856145040621
 21
557.1131288365602
 31
0.0
  0
LINE
  5
37E
330
1F
100
AcDbEntity
  8
1
  6
Continuous
 62
     7
370
     9
100
AcDbLine
 10
610.8856145040623
 20
557.1131288365602
 30
0.0
 11
628.8210983750299
 21
556.5526449655925
 31
0.0
  0
LINE
  5
37F
330
1F
100
AcDbEntity
  8
1
  6
Continuous
 62
     7
370
     9
100
AcDbLine
 10
628.8210983750301
 20
558.0316449655922
 30
0.0
 11
631.6778996757638
 21
556.3822699655925
 31
0.0
  0
LINE
  5
380
330
1F
100
AcDbEntity
  8
1
  6
Continuous
 62
     7
370
     9
100
AcDbLine
 10
608.8210983750301
 20
602.1868949655926
 30
0.0
 11
610.8856145040623
 21
604.2514110946249
 31
0.0
  0
LINE
  5
381
330
1F
100
AcDbEntity
  8
1
  6
Continuous
 62
     7
370
     9
100
AcDbLine
 10
756.3210983750299
 20
604.9822699655924
 30
0.0
 11
756.3210983750299
 21
556.3822699655925
 31
0.0
  0
LINE
  5
382
330
1F
100
AcDbEntity
  8
1
  6
Continuous
 62
     7
370
     9
100
AcDbLine
 10
756.3210983750301
 20
604.9822699655926
 30
0.0
 11
758.8210983750301
 21
602.4822699655926
 31
0.0
  0
LINE
  5
383
330
1F
100
AcDbEntity
  8
1
  6
Continuous
 62
     7
370
     9
100
AcDbLine
 10
758.8210983750297
 20
558.8822699655929
 30
0.0
 11
756.3210983750297
 21
556.3822699655927
 31
0.0
  0
LINE
  5
384
330
1F
100
AcDbEntity
  8
1
  6
Continuous
 62
     7
370
     9
100
AcDbLine
 10
654.1161965313694
 20
636.3822699655925
 30
0.0
 11
756.3210983750299
 21
636.3822699655925
 31
0.0
  0
LINE
  5
385
330
1F
100
AcDbEntity
  8
1
  6
Continuous
 62
     7
370
     9
100
AcDbLine
 10
758.8210983750299
 20
682.4822699655925
 30
0.0
 11
758.8210983750299
 21
638.8822699655925
 31
0.0
  0
LINE
  5
386
330
1F
100
AcDbEntity
  8
1
  6
Continuous
 62
     7
370
     9
100
AcDbLine
 10
654.1161965313694
 20
684.9822699655925
 30
0.0
 11
756.3210983750299
 21
684.9822699655925
 31
0.0
  0
LINE
  5
387
330
1F
100
AcDbEntity
  8
1
  6
Continuous
 62
     7
370
     9
100
AcDbLine
 10
653.8210983750301
 20
684.8118949655925
 30
0.0
 11
654.1161965313694
 21
684.9822699655925
 31
0.0
  0
LINE
  5
388
330
1F
100
AcDbEntity
  8
1
  6
Continuous
 62
     7
370
     9
100
AcDbLine
 10
653.8210983750299
 20
636.5526449655925
 30
0.0
 11
654.1161965313694
 21
636.3822699655925
 31
0.0
  0
LINE
  5
389
330
1F
100
AcDbEntity
  8
1
  6
Continuous
 62
     7
370
     9
100
AcDbLine
 10
633.8210983750301
 20
639.1776449655924
 30
0.0
 11
635.8856145040623
 21
637.1131288365601
 31
0.0
  0
LINE
  5
38A
330
1F
100
AcDbEntity
  8
1
  6
Continuous
 62
     7
370
     9
100
AcDbLine
 10
653.8210983750299
 20
684.8118949655925
 30
0.0
 11
653.8210983750299
 21
636.5526449655925
 31
0.0
  0
LINE
  5
38B
330
1F
100
AcDbEntity
  8
1
  6
Continuous
 62
     7
370
     9
100
AcDbLine
 10
634.358904826643
 20
682.7247014172054
 30
0.0
 11
653.8210983750304
 21
683.3328949655927
 31
0.0
  0
LINE
  5
38C
330
1F
100
AcDbEntity
  8
1
  6
Continuous
 62
     7
370
     9
100
AcDbLine
 10
653.8210983750301
 20
683.3328949655929
 30
0.0
 11
656.6778996757636
 21
684.9822699655925
 31
0.0
  0
LINE
  5
38D
330
1F
100
AcDbEntity
  8
1
  6
Continuous
 62
     7
370
     9
100
AcDbLine
 10
635.8856145040623
 20
684.2514110946248
 30
0.0
 11
653.8210983750297
 21
684.8118949655925
 31
0.0
  0
LINE
  5
38E
330
1F
100
AcDbEntity
  8
1
  6
Continuous
 62
     7
370
     9
100
AcDbLine
 10
633.8210983750299
 20
682.1868949655925
 30
0.0
 11
633.8210983750299
 21
639.1776449655924
 31
0.0
  0
LINE
  5
38F
330
1F
100
AcDbEntity
  8
1
  6
Continuous
 62
     7
370
     9
100
AcDbLine
 10
634.358904826643
 20
638.6398385139796
 30
0.0
 11
653.8210983750306
 21
638.0316449655925
 31
0.0
  0
LINE
  5
390
330
1F
100
AcDbEntity
  8
1
  6
Continuous
 62
     7
370
     9
100
AcDbLine
 10
635.8856145040621
 20
684.2514110946248
 30
0.0
 11
635.8856145040621
 21
637.1131288365602
 31
0.0
  0
LINE
  5
391
330
1F
100
AcDbEntity
  8
1
  6
Continuous
 62
     7
370
     9
100
AcDbLine
 10
635.8856145040623
 20
637.1131288365602
 30
0.0
 11
653.8210983750299
 21
636.5526449655925
 31
0.0
  0
LINE
  5
392
330
1F
100
AcDbEntity
  8
1
  6
Continuous
 62
     7
370
     9
100
AcDbLine
 10
653.8210983750301
 20
638.0316449655922
 30
0.0
 11
656.6778996757638
 21
636.3822699655924
 31
0.0
  0
LINE
  5
393
330
1F
100
AcDbEntity
  8
1
  6
Continuous
 62
     7
370
     9
100
AcDbLine
 10
633.8210983750301
 20
682.1868949655926
 30
0.0
 11
635.8856145040623
 21
684.2514110946249
 31
0.0
  0
LINE
  5
394
330
1F
100
AcDbEntity
  8
1
  6
Continuous
 62
     7
370
     9
100
AcDbLine
 10
756.3210983750299
 20
684.9822699655925
 30
0.0
 11
756.3210983750299
 21
636.3822699655925
 31
0.0
  0
LINE
  5
395
330
1F
100
AcDbEntity
  8
1
  6
Continuous
 62
     7
370
     9
100
AcDbLine
 10
756.3210983750301
 20
684.9822699655926
 30
0.0
 11
758.8210983750301
 21
682.4822699655926
 31
0.0
  0
LINE
  5
396
330
1F
100
AcDbEntity
  8
1
  6
Continuous
 62
     7
370
     9
100
AcDbLine
 10
758.8210983750297
 20
638.8822699655929
 30
0.0
 11
756.3210983750297
 21
636.3822699655929
 31
0.0
  0
LINE
  5
397
330
1F
100
AcDbEntity
  8
1
  6
Continuous
 62
     7
370
     9
100
AcDbLine
 10
679.1161965313694
 20
716.3822699655925
 30
0.0
 11
756.3210983750299
 21
716.3822699655925
 31
0.0
  0
LINE
  5
398
330
1F
100
AcDbEntity
  8
1
  6
Continuous
 62
     7
370
     9
100
AcDbLine
 10
758.8210983750299
 20
762.4822699655925
 30
0.0
 11
758.8210983750299
 21
718.8822699655925
 31
0.0
  0
LINE
  5
399
330
1F
100
AcDbEntity
  8
1
  6
Continuous
 62
     7
370
     9
100
AcDbLine
 10
679.1161965313694
 20
764.9822699655925
 30
0.0
 11
756.3210983750299
 21
764.9822699655925
 31
0.0
  0
LINE
  5
39A
330
1F
100
AcDbEntity
  8
1
  6
Continuous
 62
     7
370
     9
100
AcDbLine
 10
678.8210983750301
 20
764.8118949655925
 30
0.0
 11
679.1161965313694
 21
764.9822699655924
 31
0.0
  0
LINE
  5
39B
330
1F
100
AcDbEntity
  8
1
  6
Continuous
 62
     7
370
     9
100
AcDbLine
 10
678.8210983750299
 20
716.5526449655924
 30
0.0
 11
679.1161965313694
 21
716.3822699655925
 31
0.0
  0
LINE
  5
39C
330
1F
100
AcDbEntity
  8
1
  6
Continuous
 62
     7
370
     9
100
AcDbLine
 10
658.8210983750301
 20
719.1776449655924
 30
0.0
 11
660.8856145040623
 21
717.1131288365602
 31
0.0
  0
LINE
  5
39D
330
1F
100
AcDbEntity
  8
1
  6
Continuous
 62
     7
370
     9
100
AcDbLine
 10
678.8210983750299
 20
764.8118949655925
 30
0.0
 11
678.8210983750299
 21
716.5526449655924
 31
0.0
  0
LINE
  5
39E
330
1F
100
AcDbEntity
  8
1
  6
Continuous
 62
     7
370
     9
100
AcDbLine
 10
659.3589048266427
 20
762.7247014172054
 30
0.0
 11
678.8210983750304
 21
763.3328949655927
 31
0.0
  0
LINE
  5
39F
330
1F
100
AcDbEntity
  8
1
  6
Continuous
 62
     7
370
     9
100
AcDbLine
 10
678.8210983750301
 20
763.3328949655929
 30
0.0
 11
681.6778996757636
 21
764.9822699655925
 31
0.0
  0
LINE
  5
3A0
330
1F
100
AcDbEntity
  8
1
  6
Continuous
 62
     7
370
     9
100
AcDbLine
 10
660.8856145040623
 20
764.2514110946248
 30
0.0
 11
678.8210983750297
 21
764.8118949655925
 31
0.0
  0
LINE
  5
3A1
330
1F
100
AcDbEntity
  8
1
  6
Continuous
 62
     7
370
     9
100
AcDbLine
 10
658.8210983750299
 20
762.1868949655925
 30
0.0
 11
658.8210983750299
 21
719.1776449655924
 31
0.0
  0
LINE
  5
3A2
330
1F
100
AcDbEntity
  8
1
  6
Continuous
 62
     7
370
     9
100
AcDbLine
 10
659.358904826643
 20
718.6398385139796
 30
0.0
 11
678.8210983750306
 21
718.0316449655925
 31
0.0
  0
LINE
  5
3A3
330
1F
100
AcDbEntity
  8
1
  6
Continuous
 62
     7
370
     9
100
AcDbLine
 10
660.8856145040621
 20
764.2514110946248
 30
0.0
 11
660.8856145040621
 21
717.1131288365602
 31
0.0
  0
LINE
  5
3A4
330
1F
100
AcDbEntity
  8
1
  6
Continuous
 62
     7
370
     9
100
AcDbLine
 10
660.8856145040623
 20
717.1131288365602
 30
0.0
 11
678.8210983750299
 21
716.5526449655924
 31
0.0
  0
LINE
  5
3A5
330
1F
100
AcDbEntity
  8
1
  6
Continuous
 62
     7
370
     9
100
AcDbLine
 10
678.8210983750301
 20
718.0316449655922
 30
0.0
 11
681.6778996757638
 21
716.3822699655925
 31
0.0
  0
LINE
  5
3A6
330
1F
100
AcDbEntity
  8
1
  6
Continuous
 62
     7
370
     9
100
AcDbLine
 10
658.8210983750301
 20
762.1868949655926
 30
0.0
 11
660.8856145040623
 21
764.2514110946249
 31
0.0
  0
LINE
  5
3A7
330
1F
100
AcDbEntity
  8
1
  6
Continuous
 62
     7
370
     9
100
AcDbLine
 10
756.3210983750299
 20
764.9822699655925
 30
0.0
 11
756.3210983750299
 21
716.3822699655925
 31
0.0
  0
LINE
  5
3A8
330
1F
100
AcDbEntity
  8
1
  6
Continuous
 62
     7
370
     9
100
AcDbLine
 10
756.3210983750301
 20
764.9822699655926
 30
0.0
 11
758.8210983750304
 21
762.4822699655926
 31
0.0
  0
LINE
  5
3A9
330
1F
100
AcDbEntity
  8
1
  6
Continuous
 62
     7
370
     9
100
AcDbLine
 10
758.8210983750297
 20
718.8822699655927
 30
0.0
 11
756.3210983750297
 21
716.3822699655927
 31
0.0
  0
LINE
  5
3AA
330
1F
100
AcDbEntity
  8
1
  6
Continuous
 62
     7
370
     9
100
AcDbLine
 10
704.1161965313692
 20
796.3822699655926
 30
0.0
 11
756.3210983750299
 21
796.3822699655926
 31
0.0
  0
LINE
  5
3AB
330
1F
100
AcDbEntity
  8
1
  6
Continuous
 62
     7
370
     9
100
AcDbLine
 10
758.8210983750299
 20
842.4822699655925
 30
0.0
 11
758.8210983750299
 21
798.8822699655926
 31
0.0
  0
LINE
  5
3AC
330
1F
100
AcDbEntity
  8
1
  6
Continuous
 62
     7
370
     9
100
AcDbLine
 10
704.1161965313696
 20
844.9822699655925
 30
0.0
 11
756.3210983750299
 21
844.9822699655925
 31
0.0
  0
LINE
  5
3AD
330
1F
100
AcDbEntity
  8
1
  6
Continuous
 62
     7
370
     9
100
AcDbLine
 10
703.8210983750301
 20
844.8118949655925
 30
0.0
 11
704.1161965313696
 21
844.9822699655923
 31
0.0
  0
LINE
  5
3AE
330
1F
100
AcDbEntity
  8
1
  6
Continuous
 62
     7
370
     9
100
AcDbLine
 10
703.8210983750299
 20
796.5526449655925
 30
0.0
 11
704.1161965313694
 21
796.3822699655925
 31
0.0
  0
LINE
  5
3AF
330
1F
100
AcDbEntity
  8
1
  6
Continuous
 62
     7
370
     9
100
AcDbLine
 10
683.8210983750301
 20
799.1776449655924
 30
0.0
 11
685.8856145040623
 21
797.1131288365601
 31
0.0
  0
LINE
  5
3B0
330
1F
100
AcDbEntity
  8
1
  6
Continuous
 62
     7
370
     9
100
AcDbLine
 10
703.8210983750299
 20
844.8118949655925
 30
0.0
 11
703.8210983750299
 21
796.5526449655925
 31
0.0
  0
LINE
  5
3B1
330
1F
100
AcDbEntity
  8
1
  6
Continuous
 62
     7
370
     9
100
AcDbLine
 10
684.358904826643
 20
842.7247014172056
 30
0.0
 11
703.8210983750304
 21
843.3328949655927
 31
0.0
  0
LINE
  5
3B2
330
1F
100
AcDbEntity
  8
1
  6
Continuous
 62
     7
370
     9
100
AcDbLine
 10
703.8210983750301
 20
843.3328949655927
 30
0.0
 11
706.6778996757636
 21
844.9822699655925
 31
0.0
  0
LINE
  5
3B3
330
1F
100
AcDbEntity
  8
1
  6
Continuous
 62
     7
370
     9
100
AcDbLine
 10
685.8856145040623
 20
844.2514110946248
 30
0.0
 11
703.8210983750297
 21
844.8118949655925
 31
0.0
  0
LINE
  5
3B4
330
1F
100
AcDbEntity
  8
1
  6
Continuous
 62
     7
370
     9
100
AcDbLine
 10
683.8210983750299
 20
842.1868949655925
 30
0.0
 11
683.8210983750299
 21
799.1776449655925
 31
0.0
  0
LINE
  5
3B5
330
1F
100
AcDbEntity
  8
1
  6
Continuous
 62
     7
370
     9
100
AcDbLine
 10
684.358904826643
 20
798.6398385139796
 30
0.0
 11
703.8210983750306
 21
798.0316449655925
 31
0.0
  0
LINE
  5
3B6
330
1F
100
AcDbEntity
  8
1
  6
Continuous
 62
     7
370
     9
100
AcDbLine
 10
685.8856145040621
 20
844.2514110946247
 30
0.0
 11
685.8856145040621
 21
797.1131288365603
 31
0.0
  0
LINE
  5
3B7
330
1F
100
AcDbEntity
  8
1
  6
Continuous
 62
     7
370
     9
100
AcDbLine
 10
685.8856145040623
 20
797.1131288365602
 30
0.0
 11
703.8210983750299
 21
796.5526449655924
 31
0.0
  0
LINE
  5
3B8
330
1F
100
AcDbEntity
  8
1
  6
Continuous
 62
     7
370
     9
100
AcDbLine
 10
703.8210983750301
 20
798.0316449655922
 30
0.0
 11
706.6778996757638
 21
796.3822699655924
 31
0.0
  0
LINE
  5
3B9
330
1F
100
AcDbEntity
  8
1
  6
Continuous
 62
     7
370
     9
100
AcDbLine
 10
683.8210983750301
 20
842.1868949655926
 30
0.0
 11
685.8856145040623
 21
844.2514110946249
 31
0.0
  0
LINE
  5
3BA
330
1F
100
AcDbEntity
  8
1
  6
Continuous
 62
     7
370
     9
100
AcDbLine
 10
756.3210983750299
 20
844.9822699655925
 30
0.0
 11
756.3210983750299
 21
796.3822699655926
 31
0.0
  0
LINE
  5
3BB
330
1F
100
AcDbEntity
  8
1
  6
Continuous
 62
     7
370
     9
100
AcDbLine
 10
756.3210983750304
 20
844.9822699655929
 30
0.0
 11
758.8210983750304
 21
842.4822699655926
 31
0.0
  0
LINE
  5
3BC
330
1F
100
AcDbEntity
  8
1
  6
Continuous
 62
     7
370
     9
100
AcDbLine
 10
758.8210983750297
 20
798.8822699655927
 30
0.0
 11
756.3210983750297
 21
796.3822699655927
 31
0.0
  0
CIRCLE
  5
3BD
330
1F
100
AcDbEntity
  8
1
  6
Continuous
 62
     7
370
     9
100
AcDbCircle
 10
633.8210983750299
 20
820.6822699655925
 30
0.0
 40
22.4225
  0
CIRCLE
  5
3BE
330
1F
100
AcDbEntity
  8
1
  6
Continuous
 62
     7
370
     9
100
AcDbCircle
 10
633.8210983750299
 20
820.6822699655925
 30
0.0
 40
24.3
  0
CIRCLE
  5
3BF
330
1F
100
AcDbEntity
  8
1
  6
Continuous
 62
     7
370
     9
100
AcDbCircle
 10
633.8210983750299
 20
820.6822699655925
 30
0.0
 40
23.9015
  0
CIRCLE
  5
3C0
330
1F
100
AcDbEntity
  8
1
  6
Continuous
 62
     7
370
     9
100
AcDbCircle
 10
633.8210983750299
 20
820.6822699655925
 30
0.0
 40
20.8
  0
LINE
  5
3C1
330
1F
100
AcDbEntity
  8
1
  6
Continuous
 62
     7
370
     9
100
AcDbLine
 10
853.1488889903624
 20
539.9903226919068
 30
0.0
 11
1026.32109837503
 21
539.9903226919068
 31
0.0
  0
LINE
  5
3C2
330
1F
100
AcDbEntity
  8
1
  6
Continuous
 62
     7
370
     9
100
AcDbLine
 10
853.1488889903621
 20
479.4903226919069
 30
0.0
 11
1026.32109837503
 21
479.4903226919069
 31
0.0
  0
LINE
  5
3C3
330
1F
100
AcDbEntity
  8
1
  6
Continuous
 62
     7
370
     9
100
AcDbLine
 10
852.82109837503
 20
479.6795726919069
 30
0.0
 11
853.1488889903624
 21
479.4903226919068
 31
0.0
  0
LINE
  5
3C4
330
1F
100
AcDbEntity
  8
1
  6
Continuous
 62
     7
370
     9
100
AcDbLine
 10
1028.82109837503
 20
537.4903226919068
 30
0.0
 11
1028.82109837503
 21
481.9903226919069
 31
0.0
  0
LINE
  5
3C5
330
1F
100
AcDbEntity
  8
1
  6
Continuous
 62
     7
370
     9
100
AcDbLine
 10
852.82109837503
 20
539.8010726919069
 30
0.0
 11
853.1488889903624
 21
539.990322691907
 31
0.0
  0
LINE
  5
3C6
330
1F
100
AcDbEntity
  8
1
  6
Continuous
 62
     7
370
     9
100
AcDbLine
 10
852.82109837503
 20
481.1585726919069
 30
0.0
 11
855.7105921347566
 21
479.490322691907
 31
0.0
  0
LINE
  5
3C7
330
1F
100
AcDbEntity
  8
1
  6
Continuous
 62
     7
370
     9
100
AcDbLine
 10
852.82109837503
 20
539.8010726919069
 30
0.0
 11
852.82109837503
 21
479.6795726919069
 31
0.0
  0
LINE
  5
3C8
330
1F
100
AcDbEntity
  8
1
  6
Continuous
 62
     7
370
     9
100
AcDbLine
 10
828.82109837503
 20
537.0510726919069
 30
0.0
 11
828.82109837503
 21
482.4295726919069
 31
0.0
  0
LINE
  5
3C9
330
1F
100
AcDbEntity
  8
1
  6
Continuous
 62
     7
370
     9
100
AcDbLine
 10
828.82109837503
 20
482.4295726919069
 30
0.0
 11
830.8856145040622
 21
480.3650565628747
 31
0.0
  0
LINE
  5
3CA
330
1F
100
AcDbEntity
  8
1
  6
Continuous
 62
     7
370
     9
100
AcDbLine
 10
829.3589048266426
 20
481.8917662402941
 30
0.0
 11
852.8210983750303
 21
481.158572691907
 31
0.0
  0
LINE
  5
3CB
330
1F
100
AcDbEntity
  8
1
  6
Continuous
 62
     7
370
     9
100
AcDbLine
 10
829.3589048266426
 20
537.5888791435195
 30
0.0
 11
852.8210983750303
 21
538.3220726919067
 31
0.0
  0
LINE
  5
3CC
330
1F
100
AcDbEntity
  8
1
  6
Continuous
 62
     7
370
     9
100
AcDbLine
 10
852.8210983750298
 20
538.3220726919069
 30
0.0
 11
855.7105921347566
 21
539.990322691907
 31
0.0
  0
LINE
  5
3CD
330
1F
100
AcDbEntity
  8
1
  6
Continuous
 62
     7
370
     9
100
AcDbLine
 10
830.8856145040622
 20
539.1155888209391
 30
0.0
 11
852.82109837503
 21
539.8010726919069
 31
0.0
  0
LINE
  5
3CE
330
1F
100
AcDbEntity
  8
1
  6
Continuous
 62
     7
370
     9
100
AcDbLine
 10
830.8856145040622
 20
539.1155888209391
 30
0.0
 11
830.8856145040622
 21
480.3650565628747
 31
0.0
  0
LINE
  5
3CF
330
1F
100
AcDbEntity
  8
1
  6
Continuous
 62
     7
370
     9
100
AcDbLine
 10
830.8856145040622
 20
480.3650565628747
 30
0.0
 11
852.8210983750298
 21
479.6795726919069
 31
0.0
  0
LINE
  5
3D0
330
1F
100
AcDbEntity
  8
1
  6
Continuous
 62
     7
370
     9
100
AcDbLine
 10
828.8210983750298
 20
537.0510726919068
 30
0.0
 11
830.8856145040622
 21
539.1155888209391
 31
0.0
  0
LINE
  5
3D1
330
1F
100
AcDbEntity
  8
1
  6
Continuous
 62
     7
370
     9
100
AcDbLine
 10
1026.32109837503
 20
539.9903226919068
 30
0.0
 11
1026.32109837503
 21
479.4903226919069
 31
0.0
  0
LINE
  5
3D2
330
1F
100
AcDbEntity
  8
1
  6
Continuous
 62
     7
370
     9
100
AcDbLine
 10
1026.32109837503
 20
539.9903226919071
 30
0.0
 11
1028.82109837503
 21
537.4903226919071
 31
0.0
  0
LINE
  5
3D3
330
1F
100
AcDbEntity
  8
1
  6
Continuous
 62
     7
370
     9
100
AcDbLine
 10
1028.82109837503
 20
481.9903226919071
 30
0.0
 11
1026.32109837503
 21
479.4903226919071
 31
0.0
  0
LINE
  5
3D4
330
1F
100
AcDbEntity
  8
1
  6
Continuous
 62
     7
370
     9
100
AcDbLine
 10
903.1488889903624
 20
634.9903226919068
 30
0.0
 11
1026.32109837503
 21
634.9903226919068
 31
0.0
  0
LINE
  5
3D5
330
1F
100
AcDbEntity
  8
1
  6
Continuous
 62
     7
370
     9
100
AcDbLine
 10
903.1488889903624
 20
574.4903226919068
 30
0.0
 11
1026.32109837503
 21
574.4903226919068
 31
0.0
  0
LINE
  5
3D6
330
1F
100
AcDbEntity
  8
1
  6
Continuous
 62
     7
370
     9
100
AcDbLine
 10
902.82109837503
 20
574.6795726919067
 30
0.0
 11
903.1488889903624
 21
574.4903226919068
 31
0.0
  0
LINE
  5
3D7
330
1F
100
AcDbEntity
  8
1
  6
Continuous
 62
     7
370
     9
100
AcDbLine
 10
1028.82109837503
 20
632.4903226919068
 30
0.0
 11
1028.82109837503
 21
576.9903226919068
 31
0.0
  0
LINE
  5
3D8
330
1F
100
AcDbEntity
  8
1
  6
Continuous
 62
     7
370
     9
100
AcDbLine
 10
902.82109837503
 20
634.8010726919069
 30
0.0
 11
903.1488889903624
 21
634.9903226919068
 31
0.0
  0
LINE
  5
3D9
330
1F
100
AcDbEntity
  8
1
  6
Continuous
 62
     7
370
     9
100
AcDbLine
 10
902.82109837503
 20
576.1585726919069
 30
0.0
 11
905.7105921347566
 21
574.490322691907
 31
0.0
  0
LINE
  5
3DA
330
1F
100
AcDbEntity
  8
1
  6
Continuous
 62
     7
370
     9
100
AcDbLine
 10
902.82109837503
 20
634.8010726919069
 30
0.0
 11
902.82109837503
 21
574.679572691907
 31
0.0
  0
LINE
  5
3DB
330
1F
100
AcDbEntity
  8
1
  6
Continuous
 62
     7
370
     9
100
AcDbLine
 10
878.82109837503
 20
632.0510726919069
 30
0.0
 11
878.82109837503
 21
577.429572691907
 31
0.0
  0
LINE
  5
3DC
330
1F
100
AcDbEntity
  8
1
  6
Continuous
 62
     7
370
     9
100
AcDbLine
 10
878.82109837503
 20
577.429572691907
 30
0.0
 11
880.8856145040622
 21
575.3650565628748
 31
0.0
  0
LINE
  5
3DD
330
1F
100
AcDbEntity
  8
1
  6
Continuous
 62
     7
370
     9
100
AcDbLine
 10
879.3589048266426
 20
576.8917662402941
 30
0.0
 11
902.8210983750303
 21
576.158572691907
 31
0.0
  0
LINE
  5
3DE
330
1F
100
AcDbEntity
  8
1
  6
Continuous
 62
     7
370
     9
100
AcDbLine
 10
879.3589048266426
 20
632.5888791435195
 30
0.0
 11
902.8210983750303
 21
633.3220726919067
 31
0.0
  0
LINE
  5
3DF
330
1F
100
AcDbEntity
  8
1
  6
Continuous
 62
     7
370
     9
100
AcDbLine
 10
902.8210983750298
 20
633.322072691907
 30
0.0
 11
905.7105921347566
 21
634.9903226919068
 31
0.0
  0
LINE
  5
3E0
330
1F
100
AcDbEntity
  8
1
  6
Continuous
 62
     7
370
     9
100
AcDbLine
 10
880.8856145040622
 20
634.1155888209391
 30
0.0
 11
902.82109837503
 21
634.8010726919069
 31
0.0
  0
LINE
  5
3E1
330
1F
100
AcDbEntity
  8
1
  6
Continuous
 62
     7
370
     9
100
AcDbLine
 10
880.8856145040622
 20
634.1155888209391
 30
0.0
 11
880.8856145040622
 21
575.3650565628747
 31
0.0
  0
LINE
  5
3E2
330
1F
100
AcDbEntity
  8
1
  6
Continuous
 62
     7
370
     9
100
AcDbLine
 10
880.8856145040622
 20
575.3650565628747
 30
0.0
 11
902.82109837503
 21
574.679572691907
 31
0.0
  0
LINE
  5
3E3
330
1F
100
AcDbEntity
  8
1
  6
Continuous
 62
     7
370
     9
100
AcDbLine
 10
878.8210983750298
 20
632.0510726919068
 30
0.0
 11
880.8856145040622
 21
634.1155888209391
 31
0.0
  0
LINE
  5
3E4
330
1F
100
AcDbEntity
  8
1
  6
Continuous
 62
     7
370
     9
100
AcDbLine
 10
1026.32109837503
 20
634.9903226919068
 30
0.0
 11
1026.32109837503
 21
574.4903226919068
 31
0.0
  0
LINE
  5
3E5
330
1F
100
AcDbEntity
  8
1
  6
Continuous
 62
     7
370
     9
100
AcDbLine
 10
1026.32109837503
 20
634.9903226919072
 30
0.0
 11
1028.82109837503
 21
632.4903226919072
 31
0.0
  0
LINE
  5
3E6
330
1F
100
AcDbEntity
  8
1
  6
Continuous
 62
     7
370
     9
100
AcDbLine
 10
1028.82109837503
 20
576.9903226919072
 30
0.0
 11
1026.32109837503
 21
574.4903226919072
 31
0.0
  0
LINE
  5
3E7
330
1F
100
AcDbEntity
  8
1
  6
Continuous
 62
     7
370
     9
100
AcDbLine
 10
927.82109837503
 20
669.6795726919067
 30
0.0
 11
928.1488889903624
 21
669.4903226919068
 31
0.0
  0
LINE
  5
3E8
330
1F
100
AcDbEntity
  8
1
  6
Continuous
 62
     7
370
     9
100
AcDbLine
 10
928.1488889903624
 20
729.9903226919068
 30
0.0
 11
1026.32109837503
 21
729.9903226919068
 31
0.0
  0
LINE
  5
3E9
330
1F
100
AcDbEntity
  8
1
  6
Continuous
 62
     7
370
     9
100
AcDbLine
 10
1028.82109837503
 20
727.4903226919068
 30
0.0
 11
1028.82109837503
 21
671.9903226919068
 31
0.0
  0
LINE
  5
3EA
330
1F
100
AcDbEntity
  8
1
  6
Continuous
 62
     7
370
     9
100
AcDbLine
 10
928.1488889903624
 20
669.4903226919068
 30
0.0
 11
1026.32109837503
 21
669.4903226919068
 31
0.0
  0
LINE
  5
3EB
330
1F
100
AcDbEntity
  8
1
  6
Continuous
 62
     7
370
     9
100
AcDbLine
 10
927.82109837503
 20
671.1585726919068
 30
0.0
 11
930.7105921347566
 21
669.4903226919068
 31
0.0
  0
LINE
  5
3EC
330
1F
100
AcDbEntity
  8
1
  6
Continuous
 62
     7
370
     9
100
AcDbLine
 10
927.82109837503
 20
729.8010726919069
 30
0.0
 11
928.1488889903624
 21
729.9903226919068
 31
0.0
  0
LINE
  5
3ED
330
1F
100
AcDbEntity
  8
1
  6
Continuous
 62
     7
370
     9
100
AcDbLine
 10
927.82109837503
 20
729.8010726919069
 30
0.0
 11
927.82109837503
 21
669.679572691907
 31
0.0
  0
LINE
  5
3EE
330
1F
100
AcDbEntity
  8
1
  6
Continuous
 62
     7
370
     9
100
AcDbLine
 10
903.82109837503
 20
727.0510726919069
 30
0.0
 11
903.82109837503
 21
672.429572691907
 31
0.0
  0
LINE
  5
3EF
330
1F
100
AcDbEntity
  8
1
  6
Continuous
 62
     7
370
     9
100
AcDbLine
 10
903.82109837503
 20
672.429572691907
 30
0.0
 11
905.8856145040622
 21
670.3650565628748
 31
0.0
  0
LINE
  5
3F0
330
1F
100
AcDbEntity
  8
1
  6
Continuous
 62
     7
370
     9
100
AcDbLine
 10
904.3589048266426
 20
671.8917662402941
 30
0.0
 11
927.8210983750303
 21
671.158572691907
 31
0.0
  0
LINE
  5
3F1
330
1F
100
AcDbEntity
  8
1
  6
Continuous
 62
     7
370
     9
100
AcDbLine
 10
904.3589048266426
 20
727.5888791435195
 30
0.0
 11
927.8210983750303
 21
728.3220726919067
 31
0.0
  0
LINE
  5
3F2
330
1F
100
AcDbEntity
  8
1
  6
Continuous
 62
     7
370
     9
100
AcDbLine
 10
927.8210983750298
 20
728.322072691907
 30
0.0
 11
930.7105921347566
 21
729.9903226919068
 31
0.0
  0
LINE
  5
3F3
330
1F
100
AcDbEntity
  8
1
  6
Continuous
 62
     7
370
     9
100
AcDbLine
 10
905.8856145040622
 20
729.1155888209391
 30
0.0
 11
927.82109837503
 21
729.8010726919069
 31
0.0
  0
LINE
  5
3F4
330
1F
100
AcDbEntity
  8
1
  6
Continuous
 62
     7
370
     9
100
AcDbLine
 10
905.8856145040622
 20
729.1155888209391
 30
0.0
 11
905.8856145040622
 21
670.3650565628748
 31
0.0
  0
LINE
  5
3F5
330
1F
100
AcDbEntity
  8
1
  6
Continuous
 62
     7
370
     9
100
AcDbLine
 10
905.8856145040622
 20
670.3650565628748
 30
0.0
 11
927.82109837503
 21
669.679572691907
 31
0.0
  0
LINE
  5
3F6
330
1F
100
AcDbEntity
  8
1
  6
Continuous
 62
     7
370
     9
100
AcDbLine
 10
903.8210983750298
 20
727.0510726919067
 30
0.0
 11
905.8856145040622
 21
729.1155888209391
 31
0.0
  0
LINE
  5
3F7
330
1F
100
AcDbEntity
  8
1
  6
Continuous
 62
     7
370
     9
100
AcDbLine
 10
1026.32109837503
 20
729.9903226919068
 30
0.0
 11
1026.32109837503
 21
669.4903226919068
 31
0.0
  0
LINE
  5
3F8
330
1F
100
AcDbEntity
  8
1
  6
Continuous
 62
     7
370
     9
100
AcDbLine
 10
1026.32109837503
 20
729.9903226919073
 30
0.0
 11
1028.82109837503
 21
727.4903226919073
 31
0.0
  0
LINE
  5
3F9
330
1F
100
AcDbEntity
  8
1
  6
Continuous
 62
     7
370
     9
100
AcDbLine
 10
1028.82109837503
 20
671.9903226919073
 30
0.0
 11
1026.32109837503
 21
669.4903226919073
 31
0.0
  0
LINE
  5
3FA
330
1F
100
AcDbEntity
  8
1
  6
Continuous
 62
     7
370
     9
100
AcDbLine
 10
952.82109837503
 20
764.6795726919067
 30
0.0
 11
953.1488889903624
 21
764.4903226919068
 31
0.0
  0
LINE
  5
3FB
330
1F
100
AcDbEntity
  8
1
  6
Continuous
 62
     7
370
     9
100
AcDbLine
 10
953.1488889903626
 20
824.9903226919068
 30
0.0
 11
1026.32109837503
 21
824.9903226919068
 31
0.0
  0
LINE
  5
3FC
330
1F
100
AcDbEntity
  8
1
  6
Continuous
 62
     7
370
     9
100
AcDbLine
 10
1028.82109837503
 20
822.4903226919068
 30
0.0
 11
1028.82109837503
 21
766.9903226919068
 31
0.0
  0
LINE
  5
3FD
330
1F
100
AcDbEntity
  8
1
  6
Continuous
 62
     7
370
     9
100
AcDbLine
 10
953.1488889903621
 20
764.4903226919068
 30
0.0
 11
1026.32109837503
 21
764.4903226919068
 31
0.0
  0
LINE
  5
3FE
330
1F
100
AcDbEntity
  8
1
  6
Continuous
 62
     7
370
     9
100
AcDbLine
 10
952.8210983750298
 20
766.1585726919068
 30
0.0
 11
955.7105921347566
 21
764.4903226919068
 31
0.0
  0
LINE
  5
3FF
330
1F
100
AcDbEntity
  8
1
  6
Continuous
 62
     7
370
     9
100
AcDbLine
 10
952.82109837503
 20
824.8010726919069
 30
0.0
 11
953.1488889903624
 21
824.9903226919068
 31
0.0
  0
LINE
  5
400
330
1F
100
AcDbEntity
  8
1
  6
Continuous
 62
     7
370
     9
100
AcDbLine
 10
952.82109837503
 20
824.8010726919069
 30
0.0
 11
952.82109837503
 21
764.679572691907
 31
0.0
  0
LINE
  5
401
330
1F
100
AcDbEntity
  8
1
  6
Continuous
 62
     7
370
     9
100
AcDbLine
 10
928.82109837503
 20
822.0510726919069
 30
0.0
 11
928.82109837503
 21
767.429572691907
 31
0.0
  0
LINE
  5
402
330
1F
100
AcDbEntity
  8
1
  6
Continuous
 62
     7
370
     9
100
AcDbLine
 10
928.82109837503
 20
767.429572691907
 30
0.0
 11
930.8856145040622
 21
765.3650565628748
 31
0.0
  0
LINE
  5
403
330
1F
100
AcDbEntity
  8
1
  6
Continuous
 62
     7
370
     9
100
AcDbLine
 10
929.3589048266426
 20
766.8917662402941
 30
0.0
 11
952.8210983750303
 21
766.158572691907
 31
0.0
  0
LINE
  5
404
330
1F
100
AcDbEntity
  8
1
  6
Continuous
 62
     7
370
     9
100
AcDbLine
 10
929.3589048266426
 20
822.5888791435195
 30
0.0
 11
952.8210983750303
 21
823.3220726919067
 31
0.0
  0
LINE
  5
405
330
1F
100
AcDbEntity
  8
1
  6
Continuous
 62
     7
370
     9
100
AcDbLine
 10
952.8210983750298
 20
823.322072691907
 30
0.0
 11
955.7105921347566
 21
824.9903226919068
 31
0.0
  0
LINE
  5
406
330
1F
100
AcDbEntity
  8
1
  6
Continuous
 62
     7
370
     9
100
AcDbLine
 10
930.8856145040622
 20
824.1155888209391
 30
0.0
 11
952.82109837503
 21
824.8010726919069
 31
0.0
  0
LINE
  5
407
330
1F
100
AcDbEntity
  8
1
  6
Continuous
 62
     7
370
     9
100
AcDbLine
 10
930.8856145040622
 20
824.1155888209391
 30
0.0
 11
930.8856145040622
 21
765.3650565628748
 31
0.0
  0
LINE
  5
408
330
1F
100
AcDbEntity
  8
1
  6
Continuous
 62
     7
370
     9
100
AcDbLine
 10
930.8856145040622
 20
765.3650565628748
 30
0.0
 11
952.82109837503
 21
764.679572691907
 31
0.0
  0
LINE
  5
409
330
1F
100
AcDbEntity
  8
1
  6
Continuous
 62
     7
370
     9
100
AcDbLine
 10
928.8210983750298
 20
822.0510726919068
 30
0.0
 11
930.8856145040622
 21
824.1155888209391
 31
0.0
  0
LINE
  5
40A
330
1F
100
AcDbEntity
  8
1
  6
Continuous
 62
     7
370
     9
100
AcDbLine
 10
1026.32109837503
 20
824.9903226919068
 30
0.0
 11
1026.32109837503
 21
764.4903226919068
 31
0.0
  0
LINE
  5
40B
330
1F
100
AcDbEntity
  8
1
  6
Continuous
 62
     7
370
     9
100
AcDbLine
 10
1026.32109837503
 20
824.9903226919072
 30
0.0
 11
1028.82109837503
 21
822.4903226919072
 31
0.0
  0
LINE
  5
40C
330
1F
100
AcDbEntity
  8
1
  6
Continuous
 62
     7
370
     9
100
AcDbLine
 10
1028.82109837503
 20
766.9903226919071
 30
0.0
 11
1026.32109837503
 21
764.4903226919073
 31
0.0
  0
LINE
  5
40D
330
1F
100
AcDbEntity
  8
1
  6
Continuous
 62
     7
370
     9
100
AcDbLine
 10
977.82109837503
 20
859.6795726919067
 30
0.0
 11
978.1488889903624
 21
859.4903226919068
 31
0.0
  0
LINE
  5
40E
330
1F
100
AcDbEntity
  8
1
  6
Continuous
 62
     7
370
     9
100
AcDbLine
 10
978.1488889903624
 20
919.9903226919068
 30
0.0
 11
1026.32109837503
 21
919.9903226919068
 31
0.0
  0
LINE
  5
40F
330
1F
100
AcDbEntity
  8
1
  6
Continuous
 62
     7
370
     9
100
AcDbLine
 10
1028.82109837503
 20
917.4903226919068
 30
0.0
 11
1028.82109837503
 21
861.9903226919068
 31
0.0
  0
LINE
  5
410
330
1F
100
AcDbEntity
  8
1
  6
Continuous
 62
     7
370
     9
100
AcDbLine
 10
978.1488889903624
 20
859.4903226919068
 30
0.0
 11
1026.321098375029
 21
859.4903226919068
 31
0.0
  0
LINE
  5
411
330
1F
100
AcDbEntity
  8
1
  6
Continuous
 62
     7
370
     9
100
AcDbLine
 10
977.82109837503
 20
861.1585726919068
 30
0.0
 11
980.7105921347566
 21
859.4903226919068
 31
0.0
  0
LINE
  5
412
330
1F
100
AcDbEntity
  8
1
  6
Continuous
 62
     7
370
     9
100
AcDbLine
 10
977.82109837503
 20
919.8010726919069
 30
0.0
 11
978.1488889903626
 21
919.9903226919068
 31
0.0
  0
LINE
  5
413
330
1F
100
AcDbEntity
  8
1
  6
Continuous
 62
     7
370
     9
100
AcDbLine
 10
977.82109837503
 20
919.8010726919069
 30
0.0
 11
977.82109837503
 21
859.679572691907
 31
0.0
  0
LINE
  5
414
330
1F
100
AcDbEntity
  8
1
  6
Continuous
 62
     7
370
     9
100
AcDbLine
 10
953.82109837503
 20
917.0510726919069
 30
0.0
 11
953.82109837503
 21
862.429572691907
 31
0.0
  0
LINE
  5
415
330
1F
100
AcDbEntity
  8
1
  6
Continuous
 62
     7
370
     9
100
AcDbLine
 10
953.82109837503
 20
862.429572691907
 30
0.0
 11
955.8856145040622
 21
860.3650565628748
 31
0.0
  0
LINE
  5
416
330
1F
100
AcDbEntity
  8
1
  6
Continuous
 62
     7
370
     9
100
AcDbLine
 10
954.3589048266426
 20
861.8917662402939
 30
0.0
 11
977.8210983750303
 21
861.158572691907
 31
0.0
  0
LINE
  5
417
330
1F
100
AcDbEntity
  8
1
  6
Continuous
 62
     7
370
     9
100
AcDbLine
 10
954.3589048266426
 20
917.5888791435195
 30
0.0
 11
977.8210983750303
 21
918.3220726919067
 31
0.0
  0
LINE
  5
418
330
1F
100
AcDbEntity
  8
1
  6
Continuous
 62
     7
370
     9
100
AcDbLine
 10
977.8210983750298
 20
918.3220726919067
 30
0.0
 11
980.7105921347566
 21
919.9903226919068
 31
0.0
  0
LINE
  5
419
330
1F
100
AcDbEntity
  8
1
  6
Continuous
 62
     7
370
     9
100
AcDbLine
 10
955.8856145040622
 20
919.1155888209391
 30
0.0
 11
977.82109837503
 21
919.8010726919069
 31
0.0
  0
LINE
  5
41A
330
1F
100
AcDbEntity
  8
1
  6
Continuous
 62
     7
370
     9
100
AcDbLine
 10
955.8856145040622
 20
919.1155888209391
 30
0.0
 11
955.8856145040622
 21
860.3650565628748
 31
0.0
  0
LINE
  5
41B
330
1F
100
AcDbEntity
  8
1
  6
Continuous
 62
     7
370
     9
100
AcDbLine
 10
955.8856145040622
 20
860.3650565628748
 30
0.0
 11
977.82109837503
 21
859.679572691907
 31
0.0
  0
LINE
  5
41C
330
1F
100
AcDbEntity
  8
1
  6
Continuous
 62
     7
370
     9
100
AcDbLine
 10
953.82109837503
 20
917.0510726919069
 30
0.0
 11
955.8856145040622
 21
919.1155888209391
 31
0.0
  0
LINE
  5
41D
330
1F
100
AcDbEntity
  8
1
  6
Continuous
 62
     7
370
     9
100
AcDbLine
 10
1026.32109837503
 20
919.9903226919068
 30
0.0
 11
1026.32109837503
 21
859.4903226919068
 31
0.0
  0
LINE
  5
41E
330
1F
100
AcDbEntity
  8
1
  6
Continuous
 62
     7
370
     9
100
AcDbLine
 10
1026.32109837503
 20
919.9903226919073
 30
0.0
 11
1028.82109837503
 21
917.4903226919073
 31
0.0
  0
LINE
  5
41F
330
1F
100
AcDbEntity
  8
1
  6
Continuous
 62
     7
370
     9
100
AcDbLine
 10
1028.82109837503
 20
861.9903226919071
 30
0.0
 11
1026.32109837503
 21
859.4903226919071
 31
0.0
  0
CIRCLE
  5
420
330
1F
100
AcDbEntity
  8
1
  6
Continuous
 62
     7
370
     9
100
AcDbCircle
 10
883.82109837503
 20
889.7403226919068
 30
0.0
 40
28.328
  0
CIRCLE
  5
421
330
1F
100
AcDbEntity
  8
1
  6
Continuous
 62
     7
370
     9
100
AcDbCircle
 10
883.82109837503
 20
889.7403226919068
 30
0.0
 40
30.25
  0
CIRCLE
  5
422
330
1F
100
AcDbEntity
  8
1
  6
Continuous
 62
     7
370
     9
100
AcDbCircle
 10
883.82109837503
 20
889.7403226919068
 30
0.0
 40
29.807
  0
CIRCLE
  5
423
330
1F
100
AcDbEntity
  8
1
  6
Continuous
 62
     7
370
     9
100
AcDbCircle
 10
883.82109837503
 20
889.7403226919068
 30
0.0
 40
26.75
  0
MTEXT
  5
424
330
1F
100
AcDbEntity
  8
1
  6
Continuous
 62
     7
370
     9
100
AcDbMText
 10
119.4981183879597
 20
35.39657853810264
 30
0.0
 40
25.0
 41
42.18956456456456
 46
25.0
 71
     8
 72
     1
  1
{\fＭＳ 明朝;\T0.750000;8A}
 73
     1
 44
1.0
1001
ACAD
1000
ACAD_MTEXT_DEFINED_HEIGHT_BEGIN
1070
    46
1040
25.0
1000
ACAD_MTEXT_DEFINED_HEIGHT_END
  0
MTEXT
  5
425
330
1F
100
AcDbEntity
  8
1
  6
Continuous
 62
     7
370
     9
100
AcDbMText
 10
404.6272008140869
 20
35.39657853810264
 30
0.0
 40
25.0
 41
58.01176176176176
 46
25.0
 71
     8
 72
     1
  1
{\fＭＳ 明朝;\T0.750000;10A}
 73
     1
 44
1.0
1001
ACAD
1000
ACAD_MTEXT_DEFINED_HEIGHT_BEGIN
1070
    46
1040
25.0
1000
ACAD_MTEXT_DEFINED_HEIGHT_END
  0
MTEXT
  5
426
330
1F
100
AcDbEntity
  8
1
  6
Continuous
 62
     7
370
     9
100
AcDbMText
 10
667.0854693470052
 20
35.39657853810264
 30
0.0
 40
25.0
 41
58.01176176176176
 46
25.0
 71
     8
 72
     1
  1
{\fＭＳ 明朝;\T0.750000;15A}
 73
     1
 44
1.0
1001
ACAD
1000
ACAD_MTEXT_DEFINED_HEIGHT_BEGIN
1070
    46
1040
25.0
1000
ACAD_MTEXT_DEFINED_HEIGHT_END
  0
MTEXT
  5
427
330
1F
100
AcDbEntity
  8
1
  6
Continuous
 62
     7
370
     9
100
AcDbMText
 10
934.7754641629717
 20
35.39657853810264
 30
0.0
 40
25.0
 41
61.28103103103103
 46
25.0
 71
     8
 72
     1
  1
{\fＭＳ 明朝;\T0.750000;20A}
 73
     1
 44
1.0
1001
ACAD
1000
ACAD_MTEXT_DEFINED_HEIGHT_BEGIN
1070
    46
1040
25.0
1000
ACAD_MTEXT_DEFINED_HEIGHT_END
  0
MTEXT
  5
428
330
1F
100
AcDbEntity
  8
1
  6
Continuous
 62
     7
370
     9
100
AcDbMText
 10
131.5238225524663
 20
433.9012601680651
 30
0.0
 40
25.0
 41
61.28103103103103
 46
25.0
 71
     8
 72
     1
  1
{\fＭＳ 明朝;\T0.750000;25A}
 73
     1
 44
1.0
1001
ACAD
1000
ACAD_MTEXT_DEFINED_HEIGHT_BEGIN
1070
    46
1040
25.0
1000
ACAD_MTEXT_DEFINED_HEIGHT_END
  0
MTEXT
  5
429
330
1F
100
AcDbEntity
  8
1
  6
Continuous
 62
     7
370
     9
100
AcDbMText
 10
403.5735892709728
 20
433.9012601680651
 30
0.0
 40
25.0
 41
60.8546046046046
 46
25.0
 71
     8
 72
     1
  1
{\fＭＳ 明朝;\T0.750000;32A}
 73
     1
 44
1.0
1001
ACAD
1000
ACAD_MTEXT_DEFINED_HEIGHT_BEGIN
1070
    46
1040
25.0
1000
ACAD_MTEXT_DEFINED_HEIGHT_END
  0
MTEXT
  5
42A
330
1F
100
AcDbEntity
  8
1
  6
Continuous
 62
     7
370
     9
100
AcDbMText
 10
668.0664180250765
 20
433.9012601680651
 30
0.0
 40
25.0
 41
62.09834834834835
 46
25.0
 71
     8
 72
     1
  1
{\fＭＳ 明朝;\T0.750000;40A}
 73
     1
 44
1.0
1001
ACAD
1000
ACAD_MTEXT_DEFINED_HEIGHT_BEGIN
1070
    46
1040
25.0
1000
ACAD_MTEXT_DEFINED_HEIGHT_END
  0
MTEXT
  5
42B
330
1F
100
AcDbEntity
  8
1
  6
Continuous
 62
     7
370
     9
100
AcDbMText
 10
935.4657613808736
 20
433.9012601680651
 30
0.0
 40
25.0
 41
60.8546046046046
 46
25.0
 71
     8
 72
     1
  1
{\fＭＳ 明朝;\T0.750000;50A}
 73
     1
 44
1.0
1001
ACAD
1000
ACAD_MTEXT_DEFINED_HEIGHT_BEGIN
1070
    46
1040
25.0
1000
ACAD_MTEXT_DEFINED_HEIGHT_END
  0
MTEXT
  5
42C
330
1F
100
AcDbEntity
  8
1
  6
Continuous
 62
     7
370
     9
100
AcDbMText
 10
189.2542702433538
 20
763.901260168065
 30
0.0
 40
5.0
 41
28.07182177142857
 46
5.0
 71
     7
 72
     1
  1
{\fTxt;\T1.973037;５０Ｌ}
 73
     1
 44
1.0
1001
ACAD
1000
ACAD_MTEXT_DEFINED_HEIGHT_BEGIN
1070
    46
1040
5.0
1000
ACAD_MTEXT_DEFINED_HEIGHT_END
  0
MTEXT
  5
42D
330
1F
100
AcDbEntity
  8
1
  6
Continuous
 62
     7
370
     9
100
AcDbMText
 10
189.2542702433538
 20
703.901260168065
 30
0.0
 40
5.0
 41
28.07182177142857
 46
5.0
 71
     7
 72
     1
  1
{\fTxt;\T1.973037;７５Ｌ}
 73
     1
 44
1.0
1001
ACAD
1000
ACAD_MTEXT_DEFINED_HEIGHT_BEGIN
1070
    46
1040
5.0
1000
ACAD_MTEXT_DEFINED_HEIGHT_END
  0
MTEXT
  5
42E
330
1F
100
AcDbEntity
  8
1
  6
Continuous
 62
     7
370
     9
100
AcDbMText
 10
189.2542702433538
 20
643.901260168065
 30
0.0
 40
5.0
 41
39.39355074285714
 46
5.0
 71
     7
 72
     1
  1
{\fTxt;\T1.935484;１００Ｌ}
 73
     1
 44
1.0
1001
ACAD
1000
ACAD_MTEXT_DEFINED_HEIGHT_BEGIN
1070
    46
1040
5.0
1000
ACAD_MTEXT_DEFINED_HEIGHT_END
  0
MTEXT
  5
42F
330
1F
100
AcDbEntity
  8
1
  6
Continuous
 62
     7
370
     9
100
AcDbMText
 10
189.2542702433538
 20
583.901260168065
 30
0.0
 40
5.0
 41
39.39355074285714
 46
5.0
 71
     7
 72
     1
  1
{\fTxt;\T1.935484;１２５Ｌ}
 73
     1
 44
1.0
1001
ACAD
1000
ACAD_MTEXT_DEFINED_HEIGHT_BEGIN
1070
    46
1040
5.0
1000
ACAD_MTEXT_DEFINED_HEIGHT_END
  0
MTEXT
  5
430
330
1F
100
AcDbEntity
  8
1
  6
Continuous
 62
     7
370
     9
100
AcDbMText
 10
189.2542702433538
 20
523.901260168065
 30
0.0
 40
5.0
 41
39.39355074285714
 46
5.0
 71
     7
 72
     1
  1
{\fTxt;\T1.935484;１５０Ｌ}
 73
     1
 44
1.0
1001
ACAD
1000
ACAD_MTEXT_DEFINED_HEIGHT_BEGIN
1070
    46
1040
5.0
1000
ACAD_MTEXT_DEFINED_HEIGHT_END
  0
MTEXT
  5
431
330
1F
100
AcDbEntity
  8
1
  6
Continuous
 62
     7
370
     9
100
AcDbMText
 10
189.2542702433538
 20
463.9012601680651
 30
0.0
 40
5.0
 41
39.39355074285714
 46
5.0
 71
     7
 72
     1
  1
{\fTxt;\T1.935484;２００Ｌ}
 73
     1
 44
1.0
1001
ACAD
1000
ACAD_MTEXT_DEFINED_HEIGHT_BEGIN
1070
    46
1040
5.0
1000
ACAD_MTEXT_DEFINED_HEIGHT_END
  0
MTEXT
  5
432
330
1F
100
AcDbEntity
  8
1
  6
Continuous
 62
     7
370
     9
100
AcDbMText
 10
464.324778055854
 20
743.901260168065
 30
0.0
 40
5.0
 41
28.07182177142857
 46
5.0
 71
     7
 72
     1
  1
{\fTxt;\T1.973037;７５Ｌ}
 73
     1
 44
1.0
1001
ACAD
1000
ACAD_MTEXT_DEFINED_HEIGHT_BEGIN
1070
    46
1040
5.0
1000
ACAD_MTEXT_DEFINED_HEIGHT_END
  0
MTEXT
  5
433
330
1F
100
AcDbEntity
  8
1
  6
Continuous
 62
     7
370
     9
100
AcDbMText
 10
464.324778055854
 20
673.901260168065
 30
0.0
 40
5.0
 41
39.39355074285714
 46
5.0
 71
     7
 72
     1
  1
{\fTxt;\T1.935484;１００Ｌ}
 73
     1
 44
1.0
1001
ACAD
1000
ACAD_MTEXT_DEFINED_HEIGHT_BEGIN
1070
    46
1040
5.0
1000
ACAD_MTEXT_DEFINED_HEIGHT_END
  0
MTEXT
  5
434
330
1F
100
AcDbEntity
  8
1
  6
Continuous
 62
     7
370
     9
100
AcDbMText
 10
464.324778055854
 20
603.901260168065
 30
0.0
 40
5.0
 41
39.39355074285714
 46
5.0
 71
     7
 72
     1
  1
{\fTxt;\T1.935484;１２５Ｌ}
 73
     1
 44
1.0
1001
ACAD
1000
ACAD_MTEXT_DEFINED_HEIGHT_BEGIN
1070
    46
1040
5.0
1000
ACAD_MTEXT_DEFINED_HEIGHT_END
  0
MTEXT
  5
435
330
1F
100
AcDbEntity
  8
1
  6
Continuous
 62
     7
370
     9
100
AcDbMText
 10
464.324778055854
 20
533.901260168065
 30
0.0
 40
5.0
 41
39.39355074285714
 46
5.0
 71
     7
 72
     1
  1
{\fTxt;\T1.935484;１５０Ｌ}
 73
     1
 44
1.0
1001
ACAD
1000
ACAD_MTEXT_DEFINED_HEIGHT_BEGIN
1070
    46
1040
5.0
1000
ACAD_MTEXT_DEFINED_HEIGHT_END
  0
MTEXT
  5
436
330
1F
100
AcDbEntity
  8
1
  6
Continuous
 62
     7
370
     9
100
AcDbMText
 10
464.324778055854
 20
463.9012601680651
 30
0.0
 40
5.0
 41
39.39355074285714
 46
5.0
 71
     7
 72
     1
  1
{\fTxt;\T1.935484;２００Ｌ}
 73
     1
 44
1.0
1001
ACAD
1000
ACAD_MTEXT_DEFINED_HEIGHT_BEGIN
1070
    46
1040
5.0
1000
ACAD_MTEXT_DEFINED_HEIGHT_END
  0
MTEXT
  5
437
330
1F
100
AcDbEntity
  8
1
  6
Continuous
 62
     7
370
     9
100
AcDbMText
 10
729.0010632785696
 20
783.901260168065
 30
0.0
 40
5.0
 41
28.07182177142857
 46
5.0
 71
     7
 72
     1
  1
{\fTxt;\T1.973037;７５Ｌ}
 73
     1
 44
1.0
1001
ACAD
1000
ACAD_MTEXT_DEFINED_HEIGHT_BEGIN
1070
    46
1040
5.0
1000
ACAD_MTEXT_DEFINED_HEIGHT_END
  0
MTEXT
  5
438
330
1F
100
AcDbEntity
  8
1
  6
Continuous
 62
     7
370
     9
100
AcDbMText
 10
729.0010632785696
 20
703.9012601680649
 30
0.0
 40
5.0
 41
39.39355074285714
 46
5.0
 71
     7
 72
     1
  1
{\fTxt;\T1.935484;１００Ｌ}
 73
     1
 44
1.0
1001
ACAD
1000
ACAD_MTEXT_DEFINED_HEIGHT_BEGIN
1070
    46
1040
5.0
1000
ACAD_MTEXT_DEFINED_HEIGHT_END
  0
MTEXT
  5
439
330
1F
100
AcDbEntity
  8
1
  6
Continuous
 62
     7
370
     9
100
AcDbMText
 10
729.0010632785696
 20
623.901260168065
 30
0.0
 40
5.0
 41
39.39355074285714
 46
5.0
 71
     7
 72
     1
  1
{\fTxt;\T1.935484;１２５Ｌ}
 73
     1
 44
1.0
1001
ACAD
1000
ACAD_MTEXT_DEFINED_HEIGHT_BEGIN
1070
    46
1040
5.0
1000
ACAD_MTEXT_DEFINED_HEIGHT_END
  0
MTEXT
  5
43A
330
1F
100
AcDbEntity
  8
1
  6
Continuous
 62
     7
370
     9
100
AcDbMText
 10
729.0010632785696
 20
543.901260168065
 30
0.0
 40
5.0
 41
39.39355074285714
 46
5.0
 71
     7
 72
     1
  1
{\fTxt;\T1.935484;１５０Ｌ}
 73
     1
 44
1.0
1001
ACAD
1000
ACAD_MTEXT_DEFINED_HEIGHT_BEGIN
1070
    46
1040
5.0
1000
ACAD_MTEXT_DEFINED_HEIGHT_END
  0
MTEXT
  5
43B
330
1F
100
AcDbEntity
  8
1
  6
Continuous
 62
     7
370
     9
100
AcDbMText
 10
729.0010632785696
 20
463.9012601680651
 30
0.0
 40
5.0
 41
39.39355074285714
 46
5.0
 71
     7
 72
     1
  1
{\fTxt;\T1.935484;２００Ｌ}
 73
     1
 44
1.0
1001
ACAD
1000
ACAD_MTEXT_DEFINED_HEIGHT_BEGIN
1070
    46
1040
5.0
1000
ACAD_MTEXT_DEFINED_HEIGHT_END
  0
MTEXT
  5
43C
330
1F
100
AcDbEntity
  8
1
  6
Continuous
 62
     7
370
     9
100
AcDbMText
 10
1004.765012430854
 20
843.9012601680652
 30
0.0
 40
5.0
 41
28.07182177142857
 46
5.0
 71
     7
 72
     1
  1
{\fTxt;\T1.973037;７５Ｌ}
 73
     1
 44
1.0
1001
ACAD
1000
ACAD_MTEXT_DEFINED_HEIGHT_BEGIN
1070
    46
1040
5.0
1000
ACAD_MTEXT_DEFINED_HEIGHT_END
  0
MTEXT
  5
43D
330
1F
100
AcDbEntity
  8
1
  6
Continuous
 62
     7
370
     9
100
AcDbMText
 10
1004.765012430854
 20
748.9012601680652
 30
0.0
 40
5.0
 41
39.39355074285714
 46
5.0
 71
     7
 72
     1
  1
{\fTxt;\T1.935484;１００Ｌ}
 73
     1
 44
1.0
1001
ACAD
1000
ACAD_MTEXT_DEFINED_HEIGHT_BEGIN
1070
    46
1040
5.0
1000
ACAD_MTEXT_DEFINED_HEIGHT_END
  0
MTEXT
  5
43E
330
1F
100
AcDbEntity
  8
1
  6
Continuous
 62
     7
370
     9
100
AcDbMText
 10
1004.765012430854
 20
653.9012601680652
 30
0.0
 40
5.0
 41
39.39355074285714
 46
5.0
 71
     7
 72
     1
  1
{\fTxt;\T1.935484;１２５Ｌ}
 73
     1
 44
1.0
1001
ACAD
1000
ACAD_MTEXT_DEFINED_HEIGHT_BEGIN
1070
    46
1040
5.0
1000
ACAD_MTEXT_DEFINED_HEIGHT_END
  0
MTEXT
  5
43F
330
1F
100
AcDbEntity
  8
1
  6
Continuous
 62
     7
370
     9
100
AcDbMText
 10
1004.765012430854
 20
558.901260168065
 30
0.0
 40
5.0
 41
39.39355074285714
 46
5.0
 71
     7
 72
     1
  1
{\fTxt;\T1.935484;１５０Ｌ}
 73
     1
 44
1.0
1001
ACAD
1000
ACAD_MTEXT_DEFINED_HEIGHT_BEGIN
1070
    46
1040
5.0
1000
ACAD_MTEXT_DEFINED_HEIGHT_END
  0
MTEXT
  5
440
330
1F
100
AcDbEntity
  8
1
  6
Continuous
 62
     7
370
     9
100
AcDbMText
 10
1004.765012430854
 20
463.9012601680651
 30
0.0
 40
5.0
 41
39.39355074285714
 46
5.0
 71
     7
 72
     1
  1
{\fTxt;\T1.935484;２００Ｌ}
 73
     1
 44
1.0
1001
ACAD
1000
ACAD_MTEXT_DEFINED_HEIGHT_BEGIN
1070
    46
1040
5.0
1000
ACAD_MTEXT_DEFINED_HEIGHT_END
  0
MTEXT
  5
441
330
1F
100
AcDbEntity
  8
1
  6
Continuous
 62
     7
370
     9
100
AcDbMText
 10
1001.107365964004
 20
340.3965785381026
 30
0.0
 40
5.0
 41
28.07182177142857
 46
5.0
 71
     7
 72
     1
  1
{\fTxt;\T1.973037;５０Ｌ}
 73
     1
 44
1.0
1001
ACAD
1000
ACAD_MTEXT_DEFINED_HEIGHT_BEGIN
1070
    46
1040
5.0
1000
ACAD_MTEXT_DEFINED_HEIGHT_END
  0
MTEXT
  5
442
330
1F
100
AcDbEntity
  8
1
  6
Continuous
 62
     7
370
     9
100
AcDbMText
 10
1001.107365964004
 20
285.3965785381026
 30
0.0
 40
5.0
 41
28.07182177142857
 46
5.0
 71
     7
 72
     1
  1
{\fTxt;\T1.973037;７５Ｌ}
 73
     1
 44
1.0
1001
ACAD
1000
ACAD_MTEXT_DEFINED_HEIGHT_BEGIN
1070
    46
1040
5.0
1000
ACAD_MTEXT_DEFINED_HEIGHT_END
  0
MTEXT
  5
443
330
1F
100
AcDbEntity
  8
1
  6
Continuous
 62
     7
370
     9
100
AcDbMText
 10
1001.107365964004
 20
230.3965785381026
 30
0.0
 40
5.0
 41
39.39355074285714
 46
5.0
 71
     7
 72
     1
  1
{\fTxt;\T1.935484;１００Ｌ}
 73
     1
 44
1.0
1001
ACAD
1000
ACAD_MTEXT_DEFINED_HEIGHT_BEGIN
1070
    46
1040
5.0
1000
ACAD_MTEXT_DEFINED_HEIGHT_END
  0
MTEXT
  5
444
330
1F
100
AcDbEntity
  8
1
  6
Continuous
 62
     7
370
     9
100
AcDbMText
 10
1001.107365964004
 20
175.3965785381026
 30
0.0
 40
5.0
 41
39.39355074285714
 46
5.0
 71
     7
 72
     1
  1
{\fTxt;\T1.935484;１２５Ｌ}
 73
     1
 44
1.0
1001
ACAD
1000
ACAD_MTEXT_DEFINED_HEIGHT_BEGIN
1070
    46
1040
5.0
1000
ACAD_MTEXT_DEFINED_HEIGHT_END
  0
MTEXT
  5
445
330
1F
100
AcDbEntity
  8
1
  6
Continuous
 62
     7
370
     9
100
AcDbMText
 10
1001.107365964004
 20
120.3965785381026
 30
0.0
 40
5.0
 41
39.39355074285714
 46
5.0
 71
     7
 72
     1
  1
{\fTxt;\T1.935484;１５０Ｌ}
 73
     1
 44
1.0
1001
ACAD
1000
ACAD_MTEXT_DEFINED_HEIGHT_BEGIN
1070
    46
1040
5.0
1000
ACAD_MTEXT_DEFINED_HEIGHT_END
  0
MTEXT
  5
446
330
1F
100
AcDbEntity
  8
1
  6
Continuous
 62
     7
370
     9
100
AcDbMText
 10
1001.107365964004
 20
65.39657853810264
 30
0.0
 40
5.0
 41
39.39355074285714
 46
5.0
 71
     7
 72
     1
  1
{\fTxt;\T1.935484;２００Ｌ}
 73
     1
 44
1.0
1001
ACAD
1000
ACAD_MTEXT_DEFINED_HEIGHT_BEGIN
1070
    46
1040
5.0
1000
ACAD_MTEXT_DEFINED_HEIGHT_END
  0
MTEXT
  5
447
330
1F
100
AcDbEntity
  8
1
  6
Continuous
 62
     7
370
     9
100
AcDbMText
 10
736.645930399604
 20
315.3965785381026
 30
0.0
 40
5.0
 41
28.07182177142857
 46
5.0
 71
     7
 72
     1
  1
{\fTxt;\T1.973037;５０Ｌ}
 73
     1
 44
1.0
1001
ACAD
1000
ACAD_MTEXT_DEFINED_HEIGHT_BEGIN
1070
    46
1040
5.0
1000
ACAD_MTEXT_DEFINED_HEIGHT_END
  0
MTEXT
  5
448
330
1F
100
AcDbEntity
  8
1
  6
Continuous
 62
     7
370
     9
100
AcDbMText
 10
736.645930399604
 20
265.3965785381027
 30
0.0
 40
5.0
 41
28.07182177142857
 46
5.0
 71
     7
 72
     1
  1
{\fTxt;\T1.973037;７５Ｌ}
 73
     1
 44
1.0
1001
ACAD
1000
ACAD_MTEXT_DEFINED_HEIGHT_BEGIN
1070
    46
1040
5.0
1000
ACAD_MTEXT_DEFINED_HEIGHT_END
  0
MTEXT
  5
449
330
1F
100
AcDbEntity
  8
1
  6
Continuous
 62
     7
370
     9
100
AcDbMText
 10
736.645930399604
 20
215.3965785381026
 30
0.0
 40
5.0
 41
39.39355074285714
 46
5.0
 71
     7
 72
     1
  1
{\fTxt;\T1.935484;１００Ｌ}
 73
     1
 44
1.0
1001
ACAD
1000
ACAD_MTEXT_DEFINED_HEIGHT_BEGIN
1070
    46
1040
5.0
1000
ACAD_MTEXT_DEFINED_HEIGHT_END
  0
MTEXT
  5
44A
330
1F
100
AcDbEntity
  8
1
  6
Continuous
 62
     7
370
     9
100
AcDbMText
 10
736.645930399604
 20
165.3965785381027
 30
0.0
 40
5.0
 41
39.39355074285714
 46
5.0
 71
     7
 72
     1
  1
{\fTxt;\T1.935484;１２５Ｌ}
 73
     1
 44
1.0
1001
ACAD
1000
ACAD_MTEXT_DEFINED_HEIGHT_BEGIN
1070
    46
1040
5.0
1000
ACAD_MTEXT_DEFINED_HEIGHT_END
  0
MTEXT
  5
44B
330
1F
100
AcDbEntity
  8
1
  6
Continuous
 62
     7
370
     9
100
AcDbMText
 10
736.645930399604
 20
115.3965785381026
 30
0.0
 40
5.0
 41
39.39355074285714
 46
5.0
 71
     7
 72
     1
  1
{\fTxt;\T1.935484;１５０Ｌ}
 73
     1
 44
1.0
1001
ACAD
1000
ACAD_MTEXT_DEFINED_HEIGHT_BEGIN
1070
    46
1040
5.0
1000
ACAD_MTEXT_DEFINED_HEIGHT_END
  0
MTEXT
  5
44C
330
1F
100
AcDbEntity
  8
1
  6
Continuous
 62
     7
370
     9
100
AcDbMText
 10
736.645930399604
 20
65.39657853810264
 30
0.0
 40
5.0
 41
39.39355074285714
 46
5.0
 71
     7
 72
     1
  1
{\fTxt;\T1.935484;２００Ｌ}
 73
     1
 44
1.0
1001
ACAD
1000
ACAD_MTEXT_DEFINED_HEIGHT_BEGIN
1070
    46
1040
5.0
1000
ACAD_MTEXT_DEFINED_HEIGHT_END
  0
MTEXT
  5
44D
330
1F
100
AcDbEntity
  8
1
  6
Continuous
 62
     7
370
     9
100
AcDbMText
 10
466.4879274786788
 20
290.3965785381026
 30
0.0
 40
5.0
 41
28.07182177142857
 46
5.0
 71
     7
 72
     1
  1
{\fTxt;\T1.973037;５０Ｌ}
 73
     1
 44
1.0
1001
ACAD
1000
ACAD_MTEXT_DEFINED_HEIGHT_BEGIN
1070
    46
1040
5.0
1000
ACAD_MTEXT_DEFINED_HEIGHT_END
  0
MTEXT
  5
44E
330
1F
100
AcDbEntity
  8
1
  6
Continuous
 62
     7
370
     9
100
AcDbMText
 10
466.4879274786788
 20
245.3965785381026
 30
0.0
 40
5.0
 41
28.07182177142857
 46
5.0
 71
     7
 72
     1
  1
{\fTxt;\T1.973037;７５Ｌ}
 73
     1
 44
1.0
1001
ACAD
1000
ACAD_MTEXT_DEFINED_HEIGHT_BEGIN
1070
    46
1040
5.0
1000
ACAD_MTEXT_DEFINED_HEIGHT_END
  0
MTEXT
  5
44F
330
1F
100
AcDbEntity
  8
1
  6
Continuous
 62
     7
370
     9
100
AcDbMText
 10
466.4879274786788
 20
200.3965785381026
 30
0.0
 40
5.0
 41
39.39355074285714
 46
5.0
 71
     7
 72
     1
  1
{\fTxt;\T1.935484;１００Ｌ}
 73
     1
 44
1.0
1001
ACAD
1000
ACAD_MTEXT_DEFINED_HEIGHT_BEGIN
1070
    46
1040
5.0
1000
ACAD_MTEXT_DEFINED_HEIGHT_END
  0
MTEXT
  5
450
330
1F
100
AcDbEntity
  8
1
  6
Continuous
 62
     7
370
     9
100
AcDbMText
 10
466.4879274786788
 20
155.3965785381026
 30
0.0
 40
5.0
 41
39.39355074285714
 46
5.0
 71
     7
 72
     1
  1
{\fTxt;\T1.935484;１２５Ｌ}
 73
     1
 44
1.0
1001
ACAD
1000
ACAD_MTEXT_DEFINED_HEIGHT_BEGIN
1070
    46
1040
5.0
1000
ACAD_MTEXT_DEFINED_HEIGHT_END
  0
MTEXT
  5
451
330
1F
100
AcDbEntity
  8
1
  6
Continuous
 62
     7
370
     9
100
AcDbMText
 10
466.4879274786788
 20
110.3965785381026
 30
0.0
 40
5.0
 41
39.39355074285714
 46
5.0
 71
     7
 72
     1
  1
{\fTxt;\T1.935484;１５０Ｌ}
 73
     1
 44
1.0
1001
ACAD
1000
ACAD_MTEXT_DEFINED_HEIGHT_BEGIN
1070
    46
1040
5.0
1000
ACAD_MTEXT_DEFINED_HEIGHT_END
  0
MTEXT
  5
452
330
1F
100
AcDbEntity
  8
1
  6
Continuous
 62
     7
370
     9
100
AcDbMText
 10
466.4879274786788
 20
65.39657853810264
 30
0.0
 40
5.0
 41
39.39355074285714
 46
5.0
 71
     7
 72
     1
  1
{\fTxt;\T1.935484;２００Ｌ}
 73
     1
 44
1.0
1001
ACAD
1000
ACAD_MTEXT_DEFINED_HEIGHT_BEGIN
1070
    46
1040
5.0
1000
ACAD_MTEXT_DEFINED_HEIGHT_END
  0
MTEXT
  5
453
330
1F
100
AcDbEntity
  8
1
  6
Continuous
 62
     7
370
     9
100
AcDbMText
 10
204.1295046183538
 20
215.3965785381026
 30
0.0
 40
5.0
 41
28.07182177142857
 46
5.0
 71
     7
 72
     1
  1
{\fTxt;\T1.973037;５０Ｌ}
 73
     1
 44
1.0
1001
ACAD
1000
ACAD_MTEXT_DEFINED_HEIGHT_BEGIN
1070
    46
1040
5.0
1000
ACAD_MTEXT_DEFINED_HEIGHT_END
  0
MTEXT
  5
454
330
1F
100
AcDbEntity
  8
1
  6
Continuous
 62
     7
370
     9
100
AcDbMText
 10
204.1295046183538
 20
185.3965785381026
 30
0.0
 40
5.0
 41
28.07182177142857
 46
5.0
 71
     7
 72
     1
  1
{\fTxt;\T1.973037;７５Ｌ}
 73
     1
 44
1.0
1001
ACAD
1000
ACAD_MTEXT_DEFINED_HEIGHT_BEGIN
1070
    46
1040
5.0
1000
ACAD_MTEXT_DEFINED_HEIGHT_END
  0
MTEXT
  5
455
330
1F
100
AcDbEntity
  8
1
  6
Continuous
 62
     7
370
     9
100
AcDbMText
 10
204.1295046183538
 20
155.3965785381026
 30
0.0
 40
5.0
 41
39.39355074285714
 46
5.0
 71
     7
 72
     1
  1
{\fTxt;\T1.935484;１００Ｌ}
 73
     1
 44
1.0
1001
ACAD
1000
ACAD_MTEXT_DEFINED_HEIGHT_BEGIN
1070
    46
1040
5.0
1000
ACAD_MTEXT_DEFINED_HEIGHT_END
  0
MTEXT
  5
456
330
1F
100
AcDbEntity
  8
1
  6
Continuous
 62
     7
370
     9
100
AcDbMText
 10
204.1295046183538
 20
125.3965785381026
 30
0.0
 40
5.0
 41
39.39355074285714
 46
5.0
 71
     7
 72
     1
  1
{\fTxt;\T1.935484;１２５Ｌ}
 73
     1
 44
1.0
1001
ACAD
1000
ACAD_MTEXT_DEFINED_HEIGHT_BEGIN
1070
    46
1040
5.0
1000
ACAD_MTEXT_DEFINED_HEIGHT_END
  0
MTEXT
  5
457
330
1F
100
AcDbEntity
  8
1
  6
Continuous
 62
     7
370
     9
100
AcDbMText
 10
204.1295046183538
 20
95.39657853810264
 30
0.0
 40
5.0
 41
39.39355074285714
 46
5.0
 71
     7
 72
     1
  1
{\fTxt;\T1.935484;１５０Ｌ}
 73
     1
 44
1.0
1001
ACAD
1000
ACAD_MTEXT_DEFINED_HEIGHT_BEGIN
1070
    46
1040
5.0
1000
ACAD_MTEXT_DEFINED_HEIGHT_END
  0
MTEXT
  5
458
330
1F
100
AcDbEntity
  8
1
  6
Continuous
 62
     7
370
     9
100
AcDbMText
 10
204.1295046183538
 20
65.39657853810264
 30
0.0
 40
5.0
 41
39.39355074285714
 46
5.0
 71
     7
 72
     1
  1
{\fTxt;\T1.935484;２００Ｌ}
 73
     1
 44
1.0
1001
ACAD
1000
ACAD_MTEXT_DEFINED_HEIGHT_BEGIN
1070
    46
1040
5.0
1000
ACAD_MTEXT_DEFINED_HEIGHT_END
  0
LINE
  5
459
330
1F
100
AcDbEntity
  8
7
  6
DASHDOT
 62
     4
370
     9
100
AcDbLine
 10
119.1210983750296
 20
243.2274769994445
 30
0.0
 11
119.1210983750296
 21
218.2274769994445
 31
0.0
  0
LINE
  5
45A
330
1F
100
AcDbEntity
  8
7
  6
DASHDOT
 62
     4
370
     9
100
AcDbLine
 10
106.6210983750296
 20
230.7274769994445
 30
0.0
 11
131.6210983750296
 21
230.7274769994445
 31
0.0
  0
LINE
  5
45B
330
1F
100
AcDbEntity
  8
7
  6
DASHDOT
 62
     4
370
     9
100
AcDbLine
 10
167.2663935139185
 20
230.7274769994445
 30
0.0
 11
223.1210983750296
 21
230.7274769994445
 31
0.0
  0
LINE
  5
45C
330
1F
100
AcDbEntity
  8
7
  6
DASHDOT
 62
     4
370
     9
100
AcDbLine
 10
140.5803518472518
 20
200.7274769994445
 30
0.0
 11
223.1210983750296
 21
200.7274769994445
 31
0.0
  0
LINE
  5
45D
330
1F
100
AcDbEntity
  8
7
  6
DASHDOT
 62
     4
370
     9
100
AcDbLine
 10
115.4027129583629
 20
170.7274769994445
 30
0.0
 11
223.1210983750296
 21
170.7274769994445
 31
0.0
  0
LINE
  5
45E
330
1F
100
AcDbEntity
  8
7
  6
DASHDOT
 62
     4
370
     9
100
AcDbLine
 10
90.1545879583629
 20
140.7274769994445
 30
0.0
 11
223.1210983750296
 21
140.7274769994445
 31
0.0
  0
LINE
  5
45F
330
1F
100
AcDbEntity
  8
7
  6
DASHDOT
 62
     4
370
     9
100
AcDbLine
 10
64.75844212502957
 20
110.7274769994445
 30
0.0
 11
223.1210983750296
 21
110.7274769994445
 31
0.0
  0
LINE
  5
460
330
1F
100
AcDbEntity
  8
7
  6
DASHDOT
 62
     4
370
     9
100
AcDbLine
 10
15.12109837502956
 20
80.7274769994445
 30
0.0
 11
223.1210983750296
 21
80.7274769994445
 31
0.0
  0
LINE
  5
461
330
1F
100
AcDbEntity
  8
7
  6
DASHDOT
 62
     4
370
     9
100
AcDbLine
 10
388.8210983750296
 20
321.6560707494446
 30
0.0
 11
388.8210983750296
 21
296.3560707494445
 31
0.0
  0
LINE
  5
462
330
1F
100
AcDbEntity
  8
7
  6
DASHDOT
 62
     4
370
     9
100
AcDbLine
 10
376.1710983750295
 20
309.0060707494445
 30
0.0
 11
401.4710983750296
 21
309.0060707494445
 31
0.0
  0
LINE
  5
463
330
1F
100
AcDbEntity
  8
7
  6
DASHDOT
 62
     4
370
     9
100
AcDbLine
 10
435.1544517909101
 20
309.0060707494445
 30
0.0
 11
492.9350339043796
 21
309.0060707494445
 31
0.0
  0
LINE
  5
464
330
1F
100
AcDbEntity
  8
7
  6
DASHDOT
 62
     4
370
     9
100
AcDbLine
 10
410.0050073464656
 20
264.0060707494445
 30
0.0
 11
492.9350339043796
 21
264.0060707494445
 31
0.0
  0
LINE
  5
465
330
1F
100
AcDbEntity
  8
7
  6
DASHDOT
 62
     4
370
     9
100
AcDbLine
 10
385.16570179091
 20
219.0060707494445
 30
0.0
 11
492.9350339043796
 21
219.0060707494445
 31
0.0
  0
LINE
  5
466
330
1F
100
AcDbEntity
  8
7
  6
DASHDOT
 62
     4
370
     9
100
AcDbLine
 10
360.1572295686879
 20
174.0060707494445
 30
0.0
 11
492.9350339043796
 21
174.0060707494445
 31
0.0
  0
LINE
  5
467
330
1F
100
AcDbEntity
  8
7
  6
DASHDOT
 62
     4
370
     9
100
AcDbLine
 10
335.17695179091
 20
129.0060707494445
 30
0.0
 11
492.9350339043796
 21
129.0060707494445
 31
0.0
  0
LINE
  5
468
330
1F
100
AcDbEntity
  8
7
  6
DASHDOT
 62
     4
370
     9
100
AcDbLine
 10
284.8210983750296
 20
84.0060707494445
 30
0.0
 11
492.9350339043796
 21
84.0060707494445
 31
0.0
  0
LINE
  5
469
330
1F
100
AcDbEntity
  8
7
  6
PHANTOM
 62
     4
370
     9
100
AcDbLine
 10
175.1310983750296
 20
237.3059769994445
 30
0.0
 11
175.1310983750296
 21
224.1489769994445
 31
0.0
  0
LINE
  5
46A
330
1F
100
AcDbEntity
  8
7
  6
PHANTOM
 62
     4
370
     9
100
AcDbLine
 10
150.1310983750296
 20
207.3059769994445
 30
0.0
 11
150.1310983750296
 21
194.1489769994445
 31
0.0
  0
LINE
  5
46B
330
1F
100
AcDbEntity
  8
7
  6
PHANTOM
 62
     4
370
     9
100
AcDbLine
 10
125.1310983750296
 20
177.3059769994445
 30
0.0
 11
125.1310983750296
 21
164.1489769994445
 31
0.0
  0
LINE
  5
46C
330
1F
100
AcDbEntity
  8
7
  6
PHANTOM
 62
     4
370
     9
100
AcDbLine
 10
100.1310983750296
 20
147.3059769994445
 30
0.0
 11
100.1310983750296
 21
134.1489769994445
 31
0.0
  0
LINE
  5
46D
330
1F
100
AcDbEntity
  8
7
  6
PHANTOM
 62
     4
370
     9
100
AcDbLine
 10
75.13109837502955
 20
117.3059769994445
 30
0.0
 11
75.13109837502955
 21
104.1489769994445
 31
0.0
  0
LINE
  5
46E
330
1F
100
AcDbEntity
  8
7
  6
PHANTOM
 62
     4
370
     9
100
AcDbLine
 10
25.13109837502957
 20
87.3059769994445
 30
0.0
 11
25.13109837502957
 21
74.14897699944449
 31
0.0
  0
LINE
  5
46F
330
1F
100
AcDbEntity
  8
7
  6
PHANTOM
 62
     4
370
     9
100
AcDbLine
 10
445.1710983750295
 20
317.3370707494445
 30
0.0
 11
445.1710983750295
 21
300.6750707494445
 31
0.0
  0
LINE
  5
470
330
1F
100
AcDbEntity
  8
7
  6
PHANTOM
 62
     4
370
     9
100
AcDbLine
 10
420.1710983750295
 20
272.3370707494445
 30
0.0
 11
420.1710983750295
 21
255.6750707494445
 31
0.0
  0
LINE
  5
471
330
1F
100
AcDbEntity
  8
7
  6
PHANTOM
 62
     4
370
     9
100
AcDbLine
 10
395.1710983750295
 20
227.3370707494445
 30
0.0
 11
395.1710983750295
 21
210.6750707494445
 31
0.0
  0
LINE
  5
472
330
1F
100
AcDbEntity
  8
7
  6
PHANTOM
 62
     4
370
     9
100
AcDbLine
 10
370.1710983750295
 20
182.3370707494445
 30
0.0
 11
370.1710983750295
 21
165.6750707494445
 31
0.0
  0
LINE
  5
473
330
1F
100
AcDbEntity
  8
7
  6
PHANTOM
 62
     4
370
     9
100
AcDbLine
 10
345.1710983750295
 20
137.3370707494445
 30
0.0
 11
345.1710983750295
 21
120.6750707494445
 31
0.0
  0
LINE
  5
474
330
1F
100
AcDbEntity
  8
7
  6
PHANTOM
 62
     4
370
     9
100
AcDbLine
 10
295.1710983750295
 20
92.33707074944452
 30
0.0
 11
295.1710983750295
 21
75.67507074944449
 31
0.0
  0
LINE
  5
475
330
1F
100
AcDbEntity
  8
7
  6
DASHDOT
 62
     4
370
     9
100
AcDbLine
 10
658.8210983750297
 20
349.4583949681945
 30
0.0
 11
658.8210983750297
 21
319.7583949681945
 31
0.0
  0
LINE
  5
476
330
1F
100
AcDbEntity
  8
7
  6
DASHDOT
 62
     4
370
     9
100
AcDbLine
 10
643.9710983750297
 20
334.6083949681945
 30
0.0
 11
673.6710983750296
 21
334.6083949681945
 31
0.0
  0
LINE
  5
477
330
1F
100
AcDbEntity
  8
7
  6
DASHDOT
 62
     4
370
     9
100
AcDbLine
 10
762.8210983750297
 20
334.6083949681945
 30
0.0
 11
703.6071313611409
 21
334.6083949681945
 31
0.0
  0
LINE
  5
478
330
1F
100
AcDbEntity
  8
7
  6
PHANTOM
 62
     4
370
     9
100
AcDbLine
 10
716.9810983750297
 20
345.0858949681945
 30
0.0
 11
716.9810983750297
 21
324.1308949681945
 31
0.0
  0
LINE
  5
479
330
1F
100
AcDbEntity
  8
7
  6
DASHDOT
 62
     4
370
     9
100
AcDbLine
 10
762.8210983750297
 20
284.6083949681945
 30
0.0
 11
679.8674091389186
 21
284.6083949681945
 31
0.0
  0
LINE
  5
47A
330
1F
100
AcDbEntity
  8
7
  6
PHANTOM
 62
     4
370
     9
100
AcDbLine
 10
691.9810983750297
 20
295.0858949681945
 30
0.0
 11
691.9810983750297
 21
274.1308949681945
 31
0.0
  0
LINE
  5
47B
330
1F
100
AcDbEntity
  8
7
  6
DASHDOT
 62
     4
370
     9
100
AcDbLine
 10
762.8210983750297
 20
234.6083949681945
 30
0.0
 11
652.7866452500297
 21
234.6083949681945
 31
0.0
  0
LINE
  5
47C
330
1F
100
AcDbEntity
  8
7
  6
PHANTOM
 62
     4
370
     9
100
AcDbLine
 10
666.9810983750297
 20
245.0858949681945
 30
0.0
 11
666.9810983750297
 21
224.1308949681945
 31
0.0
  0
LINE
  5
47D
330
1F
100
AcDbEntity
  8
7
  6
DASHDOT
 62
     4
370
     9
100
AcDbLine
 10
762.8210983750297
 20
184.6083949681945
 30
0.0
 11
628.5535202500297
 21
184.6083949681945
 31
0.0
  0
LINE
  5
47E
330
1F
100
AcDbEntity
  8
7
  6
PHANTOM
 62
     4
370
     9
100
AcDbLine
 10
641.9810983750297
 20
195.0858949681945
 30
0.0
 11
641.9810983750297
 21
174.1308949681945
 31
0.0
  0
LINE
  5
47F
330
1F
100
AcDbEntity
  8
7
  6
DASHDOT
 62
     4
370
     9
100
AcDbLine
 10
762.8210983750297
 20
134.6083949681945
 30
0.0
 11
604.9688674722519
 21
134.6083949681945
 31
0.0
  0
LINE
  5
480
330
1F
100
AcDbEntity
  8
7
  6
PHANTOM
 62
     4
370
     9
100
AcDbLine
 10
616.9810983750297
 20
145.0858949681945
 30
0.0
 11
616.9810983750297
 21
124.1308949681945
 31
0.0
  0
LINE
  5
481
330
1F
100
AcDbEntity
  8
7
  6
DASHDOT
 62
     4
370
     9
100
AcDbLine
 10
762.8210983750297
 20
84.60839496819449
 30
0.0
 11
554.8210983750297
 21
84.60839496819449
 31
0.0
  0
LINE
  5
482
330
1F
100
AcDbEntity
  8
7
  6
PHANTOM
 62
     4
370
     9
100
AcDbLine
 10
566.9810983750297
 20
95.08589496819451
 30
0.0
 11
566.9810983750297
 21
74.13089496819451
 31
0.0
  0
LINE
  5
483
330
1F
100
AcDbEntity
  8
7
  6
DASHDOT
 62
     4
370
     9
100
AcDbLine
 10
928.8210983750297
 20
381.1583754369445
 30
0.0
 11
928.8210983750297
 21
345.9583754369446
 31
0.0
  0
LINE
  5
484
330
1F
100
AcDbEntity
  8
7
  6
DASHDOT
 62
     4
370
     9
100
AcDbLine
 10
911.2210983750296
 20
363.5583754369446
 30
0.0
 11
946.4210983750296
 21
363.5583754369446
 31
0.0
  0
LINE
  5
485
330
1F
100
AcDbEntity
  8
7
  6
DASHDOT
 62
     4
370
     9
100
AcDbLine
 10
1032.82109837503
 20
363.5583754369445
 30
0.0
 11
974.2268503456797
 21
363.5583754369445
 31
0.0
  0
LINE
  5
486
330
1F
100
AcDbEntity
  8
7
  6
PHANTOM
 62
     4
370
     9
100
AcDbLine
 10
988.3510983750297
 20
376.7788754369445
 30
0.0
 11
988.3510983750297
 21
350.3378754369445
 31
0.0
  0
LINE
  5
487
330
1F
100
AcDbEntity
  8
7
  6
DASHDOT
 62
     4
370
     9
100
AcDbLine
 10
1032.82109837503
 20
308.5583754369445
 30
0.0
 11
949.176086456791
 21
308.5583754369445
 31
0.0
  0
LINE
  5
488
330
1F
100
AcDbEntity
  8
7
  6
PHANTOM
 62
     4
370
     9
100
AcDbLine
 10
963.3510983750297
 20
321.7788754369445
 30
0.0
 11
963.3510983750297
 21
295.3378754369445
 31
0.0
  0
LINE
  5
489
330
1F
100
AcDbEntity
  8
7
  6
DASHDOT
 62
     4
370
     9
100
AcDbLine
 10
1032.82109837503
 20
253.5583754369445
 30
0.0
 11
924.1676142345688
 21
253.5583754369445
 31
0.0
  0
LINE
  5
48A
330
1F
100
AcDbEntity
  8
7
  6
PHANTOM
 62
     4
370
     9
100
AcDbLine
 10
938.3510983750297
 20
266.7788754369445
 30
0.0
 11
938.3510983750297
 21
240.3378754369445
 31
0.0
  0
LINE
  5
48B
330
1F
100
AcDbEntity
  8
7
  6
DASHDOT
 62
     4
370
     9
100
AcDbLine
 10
1032.82109837503
 20
198.5583754369445
 30
0.0
 11
899.4269892345686
 21
198.5583754369445
 31
0.0
  0
LINE
  5
48C
330
1F
100
AcDbEntity
  8
7
  6
PHANTOM
 62
     4
370
     9
100
AcDbLine
 10
913.3510983750297
 20
211.7788754369445
 30
0.0
 11
913.3510983750297
 21
185.3378754369445
 31
0.0
  0
LINE
  5
48D
330
1F
100
AcDbEntity
  8
7
  6
DASHDOT
 62
     4
370
     9
100
AcDbLine
 10
1032.82109837503
 20
143.5583754369445
 30
0.0
 11
873.4035170123465
 21
143.5583754369445
 31
0.0
  0
LINE
  5
48E
330
1F
100
AcDbEntity
  8
7
  6
PHANTOM
 62
     4
370
     9
100
AcDbLine
 10
888.3510983750298
 20
156.7788754369445
 30
0.0
 11
888.3510983750298
 21
130.3378754369445
 31
0.0
  0
LINE
  5
48F
330
1F
100
AcDbEntity
  8
7
  6
DASHDOT
 62
     4
370
     9
100
AcDbLine
 10
1032.82109837503
 20
88.5583754369445
 30
0.0
 11
824.8210983750298
 21
88.5583754369445
 31
0.0
  0
LINE
  5
490
330
1F
100
AcDbEntity
  8
7
  6
PHANTOM
 62
     4
370
     9
100
AcDbLine
 10
838.3510983750298
 20
101.7788754369445
 30
0.0
 11
838.3510983750298
 21
75.33787543694449
 31
0.0
  0
LINE
  5
491
330
1F
100
AcDbEntity
  8
7
  6
DASHDOT
 62
     4
370
     9
100
AcDbLine
 10
118.8210983750295
 20
811.0971586294067
 30
0.0
 11
118.8210983750295
 21
769.0971586294067
 31
0.0
  0
LINE
  5
492
330
1F
100
AcDbEntity
  8
7
  6
DASHDOT
 62
     4
370
     9
100
AcDbLine
 10
97.82109837502955
 20
790.0971586294067
 30
0.0
 11
139.8210983750295
 21
790.0971586294067
 31
0.0
  0
LINE
  5
493
330
1F
100
AcDbEntity
  8
7
  6
DASHDOT
 62
     4
370
     9
100
AcDbLine
 10
222.8210983750295
 20
790.0971586294069
 30
0.0
 11
161.8821140000295
 21
790.0971586294069
 31
0.0
  0
LINE
  5
494
330
1F
100
AcDbEntity
  8
7
  6
PHANTOM
 62
     4
370
     9
100
AcDbLine
 10
179.2110983750295
 20
806.7216586294069
 30
0.0
 11
179.2110983750295
 21
773.4726586294069
 31
0.0
  0
LINE
  5
495
330
1F
100
AcDbEntity
  8
7
  6
DASHDOT
 62
     4
370
     9
100
AcDbLine
 10
222.8210983750295
 20
730.0971586294069
 30
0.0
 11
136.8877390000295
 21
730.0971586294069
 31
0.0
  0
LINE
  5
496
330
1F
100
AcDbEntity
  8
7
  6
PHANTOM
 62
     4
370
     9
100
AcDbLine
 10
154.2110983750295
 20
746.7216586294069
 30
0.0
 11
154.2110983750295
 21
713.4726586294069
 31
0.0
  0
LINE
  5
497
330
1F
100
AcDbEntity
  8
7
  6
DASHDOT
 62
     4
370
     9
100
AcDbLine
 10
222.8210983750295
 20
670.0971586294069
 30
0.0
 11
112.6969056666962
 21
670.0971586294069
 31
0.0
  0
LINE
  5
498
330
1F
100
AcDbEntity
  8
7
  6
PHANTOM
 62
     4
370
     9
100
AcDbLine
 10
129.2110983750295
 20
686.7216586294069
 30
0.0
 11
129.2110983750295
 21
653.4726586294069
 31
0.0
  0
LINE
  5
499
330
1F
100
AcDbEntity
  8
7
  6
DASHDOT
 62
     4
370
     9
100
AcDbLine
 10
222.8210983750295
 20
610.0971586294069
 30
0.0
 11
86.98357233336284
 21
610.0971586294069
 31
0.0
  0
LINE
  5
49A
330
1F
100
AcDbEntity
  8
7
  6
PHANTOM
 62
     4
370
     9
100
AcDbLine
 10
104.2110983750295
 20
626.7216586294069
 30
0.0
 11
104.2110983750295
 21
593.4726586294069
 31
0.0
  0
LINE
  5
49B
330
1F
100
AcDbEntity
  8
7
  6
DASHDOT
 62
     4
370
     9
100
AcDbLine
 10
222.8210983750295
 20
550.0971586294069
 30
0.0
 11
61.10107233336282
 21
550.0971586294069
 31
0.0
  0
LINE
  5
49C
330
1F
100
AcDbEntity
  8
7
  6
PHANTOM
 62
     4
370
     9
100
AcDbLine
 10
79.21109837502954
 20
566.7216586294069
 30
0.0
 11
79.21109837502954
 21
533.4726586294069
 31
0.0
  0
LINE
  5
49D
330
1F
100
AcDbEntity
  8
7
  6
DASHDOT
 62
     4
370
     9
100
AcDbLine
 10
222.8210983750295
 20
490.0971586294069
 30
0.0
 11
14.82109837502955
 21
490.0971586294069
 31
0.0
  0
LINE
  5
49E
330
1F
100
AcDbEntity
  8
7
  6
PHANTOM
 62
     4
370
     9
100
AcDbLine
 10
29.21109837502954
 20
506.7216586294069
 30
0.0
 11
29.21109837502954
 21
473.4726586294069
 31
0.0
  0
LINE
  5
49F
330
1F
100
AcDbEntity
  8
7
  6
DASHDOT
 62
     4
370
     9
100
AcDbLine
 10
363.8210983750297
 20
803.1105375356569
 30
0.0
 11
363.8210983750297
 21
752.4105375356569
 31
0.0
  0
LINE
  5
4A0
330
1F
100
AcDbEntity
  8
7
  6
DASHDOT
 62
     4
370
     9
100
AcDbLine
 10
338.4710983750297
 20
777.7605375356569
 30
0.0
 11
389.1710983750297
 21
777.7605375356569
 31
0.0
  0
LINE
  5
4A1
330
1F
100
AcDbEntity
  8
7
  6
DASHDOT
 62
     4
370
     9
100
AcDbLine
 10
492.8210983750297
 20
777.7605375356569
 30
0.0
 11
406.4709030625297
 21
777.7605375356569
 31
0.0
  0
LINE
  5
4A2
330
1F
100
AcDbEntity
  8
7
  6
PHANTOM
 62
     4
370
     9
100
AcDbLine
 10
426.5210983750297
 20
798.715537535657
 30
0.0
 11
426.5210983750297
 21
756.8055375356569
 31
0.0
  0
LINE
  5
4A3
330
1F
100
AcDbEntity
  8
7
  6
DASHDOT
 62
     4
370
     9
100
AcDbLine
 10
492.8210983750297
 20
707.7605375356569
 30
0.0
 11
381.8994447291964
 21
707.7605375356569
 31
0.0
  0
LINE
  5
4A4
330
1F
100
AcDbEntity
  8
7
  6
PHANTOM
 62
     4
370
     9
100
AcDbLine
 10
401.5210983750297
 20
728.715537535657
 30
0.0
 11
401.5210983750297
 21
686.8055375356569
 31
0.0
  0
LINE
  5
4A5
330
1F
100
AcDbEntity
  8
7
  6
DASHDOT
 62
     4
370
     9
100
AcDbLine
 10
492.8210983750297
 20
637.7605375356569
 30
0.0
 11
355.6363197291963
 21
637.7605375356569
 31
0.0
  0
LINE
  5
4A6
330
1F
100
AcDbEntity
  8
7
  6
PHANTOM
 62
     4
370
     9
100
AcDbLine
 10
376.5210983750297
 20
658.715537535657
 30
0.0
 11
376.5210983750297
 21
616.8055375356569
 31
0.0
  0
LINE
  5
4A7
330
1F
100
AcDbEntity
  8
7
  6
DASHDOT
 62
     4
370
     9
100
AcDbLine
 10
492.8210983750297
 20
567.7605375356569
 30
0.0
 11
333.4331947291964
 21
567.7605375356569
 31
0.0
  0
LINE
  5
4A8
330
1F
100
AcDbEntity
  8
7
  6
PHANTOM
 62
     4
370
     9
100
AcDbLine
 10
351.5210983750297
 20
588.715537535657
 30
0.0
 11
351.5210983750297
 21
546.8055375356569
 31
0.0
  0
LINE
  5
4A9
330
1F
100
AcDbEntity
  8
7
  6
DASHDOT
 62
     4
370
     9
100
AcDbLine
 10
492.8210983750297
 20
497.7605375356569
 30
0.0
 11
284.8210983750297
 21
497.7605375356569
 31
0.0
  0
LINE
  5
4AA
330
1F
100
AcDbEntity
  8
7
  6
PHANTOM
 62
     4
370
     9
100
AcDbLine
 10
301.5210983750297
 20
518.715537535657
 30
0.0
 11
301.5210983750297
 21
476.8055375356569
 31
0.0
  0
LINE
  5
4AB
330
1F
100
AcDbEntity
  8
7
  6
DASHDOT
 62
     4
370
     9
100
AcDbLine
 10
633.8210983750299
 20
848.9822699655924
 30
0.0
 11
633.8210983750299
 21
792.3822699655925
 31
0.0
  0
LINE
  5
4AC
330
1F
100
AcDbEntity
  8
7
  6
DASHDOT
 62
     4
370
     9
100
AcDbLine
 10
605.52109837503
 20
820.6822699655925
 30
0.0
 11
662.1210983750299
 21
820.6822699655925
 31
0.0
  0
LINE
  5
4AD
330
1F
100
AcDbEntity
  8
7
  6
DASHDOT
 62
     4
370
     9
100
AcDbLine
 10
676.2913484935617
 20
820.6822699655925
 30
0.0
 11
762.8210983750299
 21
820.6822699655925
 31
0.0
  0
LINE
  5
4AE
330
1F
100
AcDbEntity
  8
7
  6
PHANTOM
 62
     4
370
     9
100
AcDbLine
 10
696.52109837503
 20
844.5837699655925
 30
0.0
 11
696.52109837503
 21
796.7807699655925
 31
0.0
  0
LINE
  5
4AF
330
1F
100
AcDbEntity
  8
7
  6
DASHDOT
 62
     4
370
     9
100
AcDbLine
 10
651.3036654990505
 20
740.6822699655925
 30
0.0
 11
762.8210983750299
 21
740.6822699655925
 31
0.0
  0
LINE
  5
4B0
330
1F
100
AcDbEntity
  8
7
  6
PHANTOM
 62
     4
370
     9
100
AcDbLine
 10
671.52109837503
 20
764.5837699655925
 30
0.0
 11
671.52109837503
 21
716.7807699655925
 31
0.0
  0
LINE
  5
4B1
330
1F
100
AcDbEntity
  8
7
  6
DASHDOT
 62
     4
370
     9
100
AcDbLine
 10
623.446248603209
 20
660.6822699655925
 30
0.0
 11
762.8210983750299
 21
660.6822699655925
 31
0.0
  0
LINE
  5
4B2
330
1F
100
AcDbEntity
  8
7
  6
PHANTOM
 62
     4
370
     9
100
AcDbLine
 10
646.52109837503
 20
684.5837699655925
 30
0.0
 11
646.52109837503
 21
636.7807699655925
 31
0.0
  0
LINE
  5
4B3
330
1F
100
AcDbEntity
  8
7
  6
DASHDOT
 62
     4
370
     9
100
AcDbLine
 10
601.7249293988301
 20
580.6822699655925
 30
0.0
 11
762.8210983750299
 21
580.6822699655925
 31
0.0
  0
LINE
  5
4B4
330
1F
100
AcDbEntity
  8
7
  6
PHANTOM
 62
     4
370
     9
100
AcDbLine
 10
621.52109837503
 20
604.5837699655925
 30
0.0
 11
621.52109837503
 21
556.7807699655925
 31
0.0
  0
LINE
  5
4B5
330
1F
100
AcDbEntity
  8
7
  6
DASHDOT
 62
     4
370
     9
100
AcDbLine
 10
554.8210983750299
 20
500.6822699655925
 30
0.0
 11
762.8210983750299
 21
500.6822699655925
 31
0.0
  0
LINE
  5
4B6
330
1F
100
AcDbEntity
  8
7
  6
PHANTOM
 62
     4
370
     9
100
AcDbLine
 10
571.52109837503
 20
524.5837699655925
 30
0.0
 11
571.52109837503
 21
476.7807699655925
 31
0.0
  0
LINE
  5
4B7
330
1F
100
AcDbEntity
  8
7
  6
DASHDOT
 62
     4
370
     9
100
AcDbLine
 10
919.3158249375297
 20
794.7403226919068
 30
0.0
 11
1032.82109837503
 21
794.7403226919068
 31
0.0
  0
LINE
  5
4B8
330
1F
100
AcDbEntity
  8
7
  6
PHANTOM
 62
     4
370
     9
100
AcDbLine
 10
944.7010983750299
 20
824.5473226919069
 30
0.0
 11
944.7010983750299
 21
764.9333226919068
 31
0.0
  0
LINE
  5
4B9
330
1F
100
AcDbEntity
  8
7
  6
DASHDOT
 62
     4
370
     9
100
AcDbLine
 10
895.8122311875297
 20
699.7403226919068
 30
0.0
 11
1032.82109837503
 21
699.7403226919068
 31
0.0
  0
LINE
  5
4BA
330
1F
100
AcDbEntity
  8
7
  6
PHANTOM
 62
     4
370
     9
100
AcDbLine
 10
919.7010983750299
 20
729.5473226919069
 30
0.0
 11
919.7010983750299
 21
669.9333226919068
 31
0.0
  0
LINE
  5
4BB
330
1F
100
AcDbEntity
  8
7
  6
DASHDOT
 62
     4
370
     9
100
AcDbLine
 10
870.7226999375298
 20
604.7403226919068
 30
0.0
 11
1032.82109837503
 21
604.7403226919068
 31
0.0
  0
LINE
  5
4BC
330
1F
100
AcDbEntity
  8
7
  6
PHANTOM
 62
     4
370
     9
100
AcDbLine
 10
894.7010983750299
 20
634.5473226919069
 30
0.0
 11
894.7010983750299
 21
574.9333226919069
 31
0.0
  0
LINE
  5
4BD
330
1F
100
AcDbEntity
  8
7
  6
DASHDOT
 62
     4
370
     9
100
AcDbLine
 10
824.82109837503
 20
509.7403226919069
 30
0.0
 11
1032.82109837503
 21
509.7403226919069
 31
0.0
  0
LINE
  5
4BE
330
1F
100
AcDbEntity
  8
7
  6
PHANTOM
 62
     4
370
     9
100
AcDbLine
 10
844.7010983750299
 20
539.5473226919069
 30
0.0
 11
844.7010983750299
 21
479.9333226919069
 31
0.0
  0
LINE
  5
4BF
330
1F
100
AcDbEntity
  8
7
  6
PHANTOM
 62
     4
370
     9
100
AcDbLine
 10
969.7010983750299
 20
919.5473226919069
 30
0.0
 11
969.7010983750299
 21
859.9333226919068
 31
0.0
  0
LINE
  5
4C0
330
1F
100
AcDbEntity
  8
7
  6
DASHDOT
 62
     4
370
     9
100
AcDbLine
 10
847.3331069318868
 20
889.7403226919068
 30
0.0
 11
919.9313827608521
 21
889.7403226919068
 31
0.0
  0
LINE
  5
4C1
330
1F
100
AcDbEntity
  8
7
  6
DASHDOT
 62
     4
370
     9
100
AcDbLine
 10
948.8673503510446
 20
889.7403226919068
 30
0.0
 11
1035.675253121622
 21
889.7403226919068
 31
0.0
  0
LINE
  5
4C2
330
1F
100
AcDbEntity
  8
7
  6
DASHDOT
 62
     4
370
     9
100
AcDbLine
 10
883.8210983750306
 20
853.252331248763
 30
0.0
 11
883.8210983750308
 21
925.8506070777282
 31
0.0
  0
VIEWPORT
  5
3F
330
1B
100
AcDbEntity
 67
     1
  8
0
100
AcDbViewport
 10
594.5
 20
420.5
 30
0.0
 40
1189.0
 41
841.0
 68
     1
 69
     1
 12
594.5
 22
420.5
 13
0.0
 23
0.0
 14
0.5
 24
0.5
 15
0.5
 25
0.5
 16
0.0
 26
0.0
 36
1.0
 17
0.0
 27
0.0
 37
0.0
 42
50.0
 43
0.0
 44
0.0
 45
9.0
 50
0.0
 51
0.0
 72
   100
 90
   557152
  1

281
     0
 71
     1
 74
     0
110
0.0
120
0.0
130
0.0
111
1.0
121
0.0
131
0.0
112
0.0
122
1.0
132
0.0
 79
     0
146
0.0
170
     0
 61
     5
292
     1
282
     1
141
0.0
142
0.0
 63
   256
  0
ENDSEC
  0
SECTION
  2
OBJECTS
  0
DICTIONARY
  5
C
330
0
100
AcDbDictionary
281
     1
  3
ACAD_GROUP
350
D
  3
ACAD_LAYOUT
350
1A
  3
ACAD_MATERIAL
350
3B
  3
ACAD_MLEADERSTYLE
350
4E4
  3
ACAD_MLINESTYLE
350
17
  3
ACAD_PLOTSETTINGS
350
19
  3
ACAD_PLOTSTYLENAME
350
E
  3
ACAD_TABLESTYLE
350
4E3
  3
ACAD_VISUALSTYLE
350
2A
  0
DICTIONARY
  5
D
102
{ACAD_REACTORS
330
C
102
}
330
C
100
AcDbDictionary
281
     1
  0
DICTIONARY
  5
1A
102
{ACAD_REACTORS
330
C
102
}
330
C
100
AcDbDictionary
281
     1
  3
Layout1
350
1E
  3
Layout2
350
26
  3
Model
350
22
  0
DICTIONARY
  5
3B
102
{ACAD_REACTORS
330
C
102
}
330
C
100
AcDbDictionary
281
     1
  3
ByBlock
350
3D
  3
ByLayer
350
3C
  3
Global
350
3E
  0
DICTIONARY
  5
4E4
102
{ACAD_REACTORS
330
C
102
}
330
C
100
AcDbDictionary
281
     1
  0
DICTIONARY
  5
17
102
{ACAD_REACTORS
330
C
102
}
330
C
100
AcDbDictionary
281
     1
  3
Standard
350
18
  0
DICTIONARY
  5
19
102
{ACAD_REACTORS
330
C
102
}
330
C
100
AcDbDictionary
281
     1
  0
ACDBDICTIONARYWDFLT
  5
E
102
{ACAD_REACTORS
330
C
102
}
330
C
100
AcDbDictionary
281
     1
  3
Normal
350
F
100
AcDbDictionaryWithDefault
340
F
  0
DICTIONARY
  5
4E3
102
{ACAD_REACTORS
330
C
102
}
330
C
100
AcDbDictionary
281
     1
  0
DICTIONARY
  5
2A
102
{ACAD_REACTORS
330
C
102
}
330
C
100
AcDbDictionary
281
     1
  3
2dWireframe
350
2F
  3
3D Hidden
350
31
  3
3dWireframe
350
30
  3
Basic
350
32
  3
Brighten
350
36
  3
ColorChange
350
3A
  3
Conceptual
350
34
  3
Dim
350
35
  3
Facepattern
350
39
  3
Flat
350
2B
  3
FlatWithEdges
350
2C
  3
Gouraud
350
2D
  3
GouraudWithEdges
350
2E
  3
Linepattern
350
38
  3
Realistic
350
33
  3
Thicken
350
37
  0
LAYOUT
  5
1E
102
{ACAD_REACTORS
330
1A
102
}
330
1A
100
AcDbPlotSettings
  1

  2
none_device
  4

  6

 40
0.0
 41
0.0
 42
0.0
 43
0.0
 44
0.0
 45
0.0
 46
0.0
 47
0.0
 48
0.0
 49
0.0
140
0.0
141
0.0
142
1.0
143
1.0
 70
   688
 72
     0
 73
     0
 74
     5
  7

 75
    16
 76
     0
 77
     2
 78
   300
147
1.0
148
0.0
149
0.0
100
AcDbLayout
  1
Layout1
 70
     1
 71
     1
 10
0.0
 20
0.0
 11
1189.0
 21
841.0
 12
0.0
 22
0.0
 32
0.0
 14
0.0
 24
0.0
 34
0.0
 15
1189.0
 25
841.0
 35
0.0
146
0.0
 13
0.0
 23
0.0
 33
0.0
 16
1.0
 26
0.0
 36
0.0
 17
0.0
 27
1.0
 37
0.0
 76
     0
330
1B
331
3F
  0
LAYOUT
  5
26
102
{ACAD_REACTORS
330
1A
102
}
330
1A
100
AcDbPlotSettings
  1

  2
none_device
  4

  6

 40
0.0
 41
0.0
 42
0.0
 43
0.0
 44
0.0
 45
0.0
 46
0.0
 47
0.0
 48
0.0
 49
0.0
140
0.0
141
0.0
142
1.0
143
1.0
 70
   688
 72
     0
 73
     0
 74
     5
  7

 75
    16
 76
     0
 77
     2
 78
   300
147
1.0
148
0.0
149
0.0
100
AcDbLayout
  1
Layout2
 70
     1
 71
     2
 10
0.0
 20
0.0
 11
0.0
 21
0.0
 12
0.0
 22
0.0
 32
0.0
 14
0.0
 24
0.0
 34
0.0
 15
0.0
 25
0.0
 35
0.0
146
0.0
 13
0.0
 23
0.0
 33
0.0
 16
1.0
 26
0.0
 36
0.0
 17
0.0
 27
1.0
 37
0.0
 76
     0
330
23
  0
LAYOUT
  5
22
102
{ACAD_REACTORS
330
1A
102
}
330
1A
100
AcDbPlotSettings
  1

  2
none_device
  4

  6

 40
0.0
 41
0.0
 42
0.0
 43
0.0
 44
0.0
 45
0.0
 46
0.0
 47
0.0
 48
0.0
 49
0.0
140
0.0
141
0.0
142
1.0
143
1.0
 70
  1712
 72
     0
 73
     0
 74
     0
  7

 75
     0
 76
     0
 77
     2
 78
   300
147
1.0
148
0.0
149
0.0
100
AcDbLayout
  1
Model
 70
     1
 71
     0
 10
0.0
 20
0.0
 11
1189.0
 21
841.0
 12
0.0
 22
0.0
 32
0.0
 14
14.82109837502955
 24
35.39657853810264
 34
0.0
 15
1035.675253121622
 25
925.8506070777282
 35
0.0
146
0.0
 13
0.0
 23
0.0
 33
0.0
 16
1.0
 26
0.0
 36
0.0
 17
0.0
 27
1.0
 37
0.0
 76
     0
330
1F
331
29
  0
MATERIAL
  5
3D
102
{ACAD_REACTORS
330
3B
102
}
330
3B
100
AcDbMaterial
  1
ByBlock
 72
     1
 94
      127
  0
MATERIAL
  5
3C
102
{ACAD_REACTORS
330
3B
102
}
330
3B
100
AcDbMaterial
  1
ByLayer
 72
     1
 94
      127
  0
MATERIAL
  5
3E
102
{ACAD_REACTORS
330
3B
102
}
330
3B
100
AcDbMaterial
  1
Global
 72
     1
 94
      127
  0
MLINESTYLE
  5
18
102
{ACAD_REACTORS
330
17
102
}
330
17
100
AcDbMlineStyle
  2
Standard
 70
     0
  3

 62
   256
 51
90.0
 52
90.0
 71
     2
 49
0.5
 62
   256
  6
BYLAYER
 49
-0.5
 62
   256
  6
BYLAYER
  0
ACDBPLACEHOLDER
  5
F
102
{ACAD_REACTORS
330
E
102
}
330
E
  0
VISUALSTYLE
  5
2F
102
{ACAD_REACTORS
330
2A
102
}
102
{ACAD_XDICTIONARY
360
4CB
102
}
330
2A
100
AcDbVisualStyle
  2
2dWireframe
 70
     4
 71
     0
 72
     2
 73
     0
 90
        0
 40
-0.6
 41
-30.0
 62
     5
 63
     7
421
 16777215
 74
     1
 91
        4
 64
     7
 65
   257
 75
     1
175
     1
 42
1.0
 92
        0
 66
   257
 43
1.0
 76
     1
 77
     6
 78
     2
 67
     7
 79
     5
170
     0
171
     0
290
     0
174
     0
 93
        1
 44
0.0
173
     0
291
     0
 45
0.0
  0
VISUALSTYLE
  5
31
102
{ACAD_REACTORS
330
2A
102
}
102
{ACAD_XDICTIONARY
360
4CF
102
}
330
2A
100
AcDbVisualStyle
  2
3D Hidden
 70
     6
 71
     1
 72
     2
 73
     2
 90
        0
 40
-0.6
 41
-30.0
 62
     5
 63
     7
421
 16777215
 74
     2
 91
        2
 64
     7
 65
   257
 75
     2
175
     1
 42
40.0
 92
        0
 66
   257
 43
1.0
 76
     1
 77
     6
 78
     2
 67
     7
 79
     3
170
     0
171
     0
290
     0
174
     0
 93
        1
 44
0.0
173
     0
291
     0
 45
0.0
  0
VISUALSTYLE
  5
30
102
{ACAD_REACTORS
330
2A
102
}
102
{ACAD_XDICTIONARY
360
4CD
102
}
330
2A
100
AcDbVisualStyle
  2
3dWireframe
 70
     5
 71
     0
 72
     2
 73
     0
 90
        0
 40
-0.6
 41
-30.0
 62
     5
 63
     7
421
 16777215
 74
     1
 91
        4
 64
     7
 65
   257
 75
     1
175
     1
 42
1.0
 92
        0
 66
   257
 43
1.0
 76
     1
 77
     6
 78
     2
 67
     7
 79
     5
170
     0
171
     0
290
     0
174
     0
 93
        1
 44
0.0
173
     0
291
     0
 45
0.0
  0
VISUALSTYLE
  5
32
102
{ACAD_REACTORS
330
2A
102
}
102
{ACAD_XDICTIONARY
360
4D1
102
}
330
2A
100
AcDbVisualStyle
  2
Basic
 70
     7
 71
     1
 72
     0
 73
     1
 90
        0
 40
-0.6
 41
-30.0
 62
     5
 63
     7
421
 16777215
 74
     0
 91
        4
 64
     7
 65
   257
 75
     1
175
     1
 42
1.0
 92
        8
 66
     7
 43
1.0
 76
     1
 77
     6
 78
     2
 67
     7
 79
     5
170
     0
171
     0
290
     0
174
     0
 93
        1
 44
0.0
173
     0
291
     1
 45
0.0
  0
VISUALSTYLE
  5
36
102
{ACAD_REACTORS
330
2A
102
}
102
{ACAD_XDICTIONARY
360
4D9
102
}
330
2A
100
AcDbVisualStyle
  2
Brighten
 70
    12
 71
     2
 72
     2
 73
     0
 90
        0
 40
-0.6
 41
-30.0
 62
     5
 63
     7
421
 16777215
 74
     1
 91
        4
 64
     7
 65
   257
 75
     1
175
     1
 42
1.0
 92
        8
 66
     7
 43
1.0
 76
     1
 77
     6
 78
     2
 67
     7
 79
     5
170
     0
171
     0
290
     0
174
     0
 93
        1
 44
50.0
173
     0
291
     1
 45
0.0
  0
VISUALSTYLE
  5
3A
102
{ACAD_REACTORS
330
2A
102
}
102
{ACAD_XDICTIONARY
360
4E1
102
}
330
2A
100
AcDbVisualStyle
  2
ColorChange
 70
    16
 71
     2
 72
     2
 73
     3
 90
        0
 40
-0.6
 41
-30.0
 62
     5
 63
     8
421
  8421504
 74
     1
 91
        4
 64
     7
 65
   257
 75
     1
175
     1
 42
1.0
 92
        8
 66
     8
424
  8421504
 43
1.0
 76
     1
 77
     6
 78
     2
 67
     7
 79
     5
170
     0
171
     0
290
     0
174
     0
 93
        1
 44
0.0
173
     0
291
     1
 45
0.0
  0
VISUALSTYLE
  5
34
102
{ACAD_REACTORS
330
2A
102
}
102
{ACAD_XDICTIONARY
360
4D5
102
}
330
2A
100
AcDbVisualStyle
  2
Conceptual
 70
     9
 71
     3
 72
     2
 73
     0
 90
        0
 40
-0.6
 41
-30.0
 62
     5
 63
     7
421
 16777215
 74
     2
 91
        2
 64
     7
 65
   257
 75
     1
175
     1
 42
40.0
 92
        8
 66
     7
 43
1.0
 76
     1
 77
     6
 78
     2
 67
     7
 79
     3
170
     0
171
     0
290
     0
174
     0
 93
        1
 44
0.0
173
     0
291
     0
 45
0.0
  0
VISUALSTYLE
  5
35
102
{ACAD_REACTORS
330
2A
102
}
102
{ACAD_XDICTIONARY
360
4D7
102
}
330
2A
100
AcDbVisualStyle
  2
Dim
 70
    11
 71
     2
 72
     2
 73
     0
 90
        0
 40
-0.6
 41
-30.0
 62
     5
 63
     7
421
 16777215
 74
     1
 91
        4
 64
     7
 65
   257
 75
     1
175
     1
 42
1.0
 92
        8
 66
     7
 43
1.0
 76
     1
 77
     6
 78
     2
 67
     7
 79
     5
170
     0
171
     0
290
     0
174
     0
 93
        1
 44
-50.0
173
     0
291
     1
 45
0.0
  0
VISUALSTYLE
  5
39
102
{ACAD_REACTORS
330
2A
102
}
102
{ACAD_XDICTIONARY
360
4DF
102
}
330
2A
100
AcDbVisualStyle
  2
Facepattern
 70
    15
 71
     2
 72
     2
 73
     0
 90
        0
 40
-0.6
 41
-30.0
 62
     5
 63
     7
421
 16777215
 74
     1
 91
        4
 64
     7
 65
   257
 75
     1
175
     1
 42
1.0
 92
        8
 66
     7
 43
1.0
 76
     1
 77
     6
 78
     2
 67
     7
 79
     5
170
     0
171
     0
290
     0
174
     0
 93
        1
 44
0.0
173
     0
291
     1
 45
0.0
  0
VISUALSTYLE
  5
2B
102
{ACAD_REACTORS
330
2A
102
}
102
{ACAD_XDICTIONARY
360
4C3
102
}
330
2A
100
AcDbVisualStyle
  2
Flat
 70
     0
 71
     2
 72
     1
 73
     1
 90
        2
 40
-0.6
 41
30.0
 62
     5
 63
     7
421
 16777215
 74
     0
 91
        4
 64
     7
 65
   257
 75
     1
175
     1
 42
1.0
 92
        8
 66
     7
 43
1.0
 76
     1
 77
     6
 78
     2
 67
     7
 79
     5
170
     0
171
     0
290
     0
174
     0
 93
       13
 44
0.0
173
     0
291
     1
 45
0.0
  0
VISUALSTYLE
  5
2C
102
{ACAD_REACTORS
330
2A
102
}
102
{ACAD_XDICTIONARY
360
4C5
102
}
330
2A
100
AcDbVisualStyle
  2
FlatWithEdges
 70
     1
 71
     2
 72
     1
 73
     1
 90
        2
 40
-0.6
 41
30.0
 62
     5
 63
     7
421
 16777215
 74
     1
 91
        4
 64
     7
 65
   257
 75
     1
175
     1
 42
1.0
 92
        0
 66
   257
 43
1.0
 76
     1
 77
     6
 78
     2
 67
     7
 79
     5
170
     0
171
     0
290
     0
174
     0
 93
       13
 44
0.0
173
     0
291
     1
 45
0.0
  0
VISUALSTYLE
  5
2D
102
{ACAD_REACTORS
330
2A
102
}
102
{ACAD_XDICTIONARY
360
4C7
102
}
330
2A
100
AcDbVisualStyle
  2
Gouraud
 70
     2
 71
     2
 72
     2
 73
     1
 90
        2
 40
-0.6
 41
30.0
 62
     5
 63
     7
421
 16777215
 74
     0
 91
        4
 64
     7
 65
   257
 75
     1
175
     1
 42
1.0
 92
        0
 66
     7
 43
1.0
 76
     1
 77
     6
 78
     2
 67
     7
 79
     5
170
     0
171
     0
290
     0
174
     0
 93
       13
 44
0.0
173
     0
291
     1
 45
0.0
  0
VISUALSTYLE
  5
2E
102
{ACAD_REACTORS
330
2A
102
}
102
{ACAD_XDICTIONARY
360
4C9
102
}
330
2A
100
AcDbVisualStyle
  2
GouraudWithEdges
 70
     3
 71
     2
 72
     2
 73
     1
 90
        2
 40
-0.6
 41
30.0
 62
     5
 63
     7
421
 16777215
 74
     1
 91
        4
 64
     7
 65
   257
 75
     1
175
     1
 42
1.0
 92
        0
 66
   257
 43
1.0
 76
     1
 77
     6
 78
     2
 67
     7
 79
     5
170
     0
171
     0
290
     0
174
     0
 93
       13
 44
0.0
173
     0
291
     1
 45
0.0
  0
VISUALSTYLE
  5
38
102
{ACAD_REACTORS
330
2A
102
}
102
{ACAD_XDICTIONARY
360
4DD
102
}
330
2A
100
AcDbVisualStyle
  2
Linepattern
 70
    14
 71
     2
 72
     2
 73
     0
 90
        0
 40
-0.6
 41
-30.0
 62
     5
 63
     7
421
 16777215
 74
     1
 91
        4
 64
     7
 65
   257
 75
     7
175
     7
 42
1.0
 92
        8
 66
     7
 43
1.0
 76
     1
 77
     6
 78
     2
 67
     7
 79
     5
170
     0
171
     0
290
     0
174
     0
 93
        1
 44
0.0
173
     0
291
     1
 45
0.0
  0
VISUALSTYLE
  5
33
102
{ACAD_REACTORS
330
2A
102
}
102
{ACAD_XDICTIONARY
360
4D3
102
}
330
2A
100
AcDbVisualStyle
  2
Realistic
 70
     8
 71
     2
 72
     2
 73
     0
 90
        0
 40
-0.6
 41
-30.0
 62
     5
 63
     7
421
 16777215
 74
     1
 91
        0
 64
     7
 65
   257
 75
     1
175
     1
 42
1.0
 92
        8
 66
     8
424
  7895160
 43
1.0
 76
     1
 77
     6
 78
     2
 67
     7
 79
     5
170
     0
171
     0
290
     0
174
     0
 93
       13
 44
0.0
173
     0
291
     0
 45
0.0
  0
VISUALSTYLE
  5
37
102
{ACAD_REACTORS
330
2A
102
}
102
{ACAD_XDICTIONARY
360
4DB
102
}
330
2A
100
AcDbVisualStyle
  2
Thicken
 70
    13
 71
     2
 72
     2
 73
     0
 90
        0
 40
-0.6
 41
-30.0
 62
     5
 63
     7
421
 16777215
 74
     1
 91
        4
 64
     7
 65
   257
 75
     1
175
     1
 42
1.0
 92
       12
 66
     7
 43
1.0
 76
     1
 77
     6
 78
     2
 67
     7
 79
     5
170
     0
171
     0
290
     0
174
     0
 93
        1
 44
0.0
173
     0
291
     1
 45
0.0
  0
DICTIONARY
  5
4CB
330
2F
100
AcDbDictionary
280
     1
281
     1
  3
ACAD_XREC_ROUNDTRIP
360
4CC
  0
DICTIONARY
  5
4CF
330
31
100
AcDbDictionary
280
     1
281
     1
  3
ACAD_XREC_ROUNDTRIP
360
4D0
  0
DICTIONARY
  5
4CD
330
30
100
AcDbDictionary
280
     1
281
     1
  3
ACAD_XREC_ROUNDTRIP
360
4CE
  0
DICTIONARY
  5
4D1
330
32
100
AcDbDictionary
280
     1
281
     1
  3
ACAD_XREC_ROUNDTRIP
360
4D2
  0
DICTIONARY
  5
4D9
330
36
100
AcDbDictionary
280
     1
281
     1
  3
ACAD_XREC_ROUNDTRIP
360
4DA
  0
DICTIONARY
  5
4E1
330
3A
100
AcDbDictionary
280
     1
281
     1
  3
ACAD_XREC_ROUNDTRIP
360
4E2
  0
DICTIONARY
  5
4D5
330
34
100
AcDbDictionary
280
     1
281
     1
  3
ACAD_XREC_ROUNDTRIP
360
4D6
  0
DICTIONARY
  5
4D7
330
35
100
AcDbDictionary
280
     1
281
     1
  3
ACAD_XREC_ROUNDTRIP
360
4D8
  0
DICTIONARY
  5
4DF
330
39
100
AcDbDictionary
280
     1
281
     1
  3
ACAD_XREC_ROUNDTRIP
360
4E0
  0
DICTIONARY
  5
4C3
330
2B
100
AcDbDictionary
280
     1
281
     1
  3
ACAD_XREC_ROUNDTRIP
360
4C4
  0
DICTIONARY
  5
4C5
330
2C
100
AcDbDictionary
280
     1
281
     1
  3
ACAD_XREC_ROUNDTRIP
360
4C6
  0
DICTIONARY
  5
4C7
330
2D
100
AcDbDictionary
280
     1
281
     1
  3
ACAD_XREC_ROUNDTRIP
360
4C8
  0
DICTIONARY
  5
4C9
330
2E
100
AcDbDictionary
280
     1
281
     1
  3
ACAD_XREC_ROUNDTRIP
360
4CA
  0
DICTIONARY
  5
4DD
330
38
100
AcDbDictionary
280
     1
281
     1
  3
ACAD_XREC_ROUNDTRIP
360
4DE
  0
DICTIONARY
  5
4D3
330
33
100
AcDbDictionary
280
     1
281
     1
  3
ACAD_XREC_ROUNDTRIP
360
4D4
  0
DICTIONARY
  5
4DB
330
37
100
AcDbDictionary
280
     1
281
     1
  3
ACAD_XREC_ROUNDTRIP
360
4DC
  0
XRECORD
  5
4CC
102
{ACAD_REACTORS
330
4CB
102
}
330
4CB
100
AcDbXrecord
280
     1
102
RTVSPropertyOp0
 70
     1
102
RTVSPropertyOp1
 70
     1
102
RTVSPropertyOp2
 70
     1
102
RTVSPropertyOp3
 70
     1
102
RTVSPropertyOp4
 70
     1
102
RTVSPropertyOp5
 70
     1
102
RTVSPropertyOp6
 70
     1
102
RTVSPropertyOp7
 70
     1
102
RTVSPropertyOp8
 70
     1
102
RTVSPropertyOp9
 70
     1
102
RTVSPropertyOp10
 70
     1
102
RTVSPropertyOp11
 70
     1
102
RTVSPropertyOp12
 70
     1
102
RTVSPropertyOp13
 70
     1
102
RTVSPropertyOp14
 70
     1
102
RTVSPropertyOp15
 70
     1
102
RTVSPropertyOp16
 70
     1
102
RTVSPropertyOp17
 70
     1
102
RTVSPropertyOp18
 70
     1
102
RTVSPropertyOp19
 70
     1
102
RTVSPropertyOp20
 70
     1
102
RTVSPropertyOp21
 70
     1
102
RTVSPropertyOp22
 70
     1
102
RTVSPropertyOp23
 70
     1
102
RTVSPropertyOp24
 70
     1
102
RTVSPropertyOp25
 70
     1
102
RTVSPropertyOp26
 70
     1
102
RTVSPropertyOp27
 70
     1
102
RTVSPropertyOp28
 70
     1
102
RTVSPropertyOp29
 70
     1
102
RTVSPropertyOp30
 70
     1
102
RTVSPropertyOp31
 70
     1
102
RTVSPropertyOp32
 70
     1
  0
XRECORD
  5
4D0
102
{ACAD_REACTORS
330
4CF
102
}
330
4CF
100
AcDbXrecord
280
     1
102
RTVSPropertyOp0
 70
     1
102
RTVSPropertyOp1
 70
     1
102
RTVSPropertyOp2
 70
     1
102
RTVSPropertyOp3
 70
     1
102
RTVSPropertyOp4
 70
     1
102
RTVSPropertyOp5
 70
     1
102
RTVSPropertyOp6
 70
     1
102
RTVSPropertyOp7
 70
     1
102
RTVSPropertyOp8
 70
     1
102
RTVSPropertyOp9
 70
     1
102
RTVSPropertyOp10
 70
     1
102
RTVSPropertyOp11
 70
     1
102
RTVSPropertyOp12
 70
     1
102
RTVSPropertyOp13
 70
     1
102
RTVSPropertyOp14
 70
     1
102
RTVSPropertyOp15
 70
     1
102
RTVSPropertyOp16
 70
     1
102
RTVSPropertyOp17
 70
     1
102
RTVSPropertyOp18
 70
     1
102
RTVSPropertyOp19
 70
     1
102
RTVSPropertyOp20
 70
     1
102
RTVSPropertyOp21
 70
     1
102
RTVSPropertyOp22
 70
     1
102
RTVSPropertyOp23
 70
     1
102
RTVSPropertyOp24
 70
     1
102
RTVSPropertyOp25
 70
     1
102
RTVSPropertyOp26
 70
     1
102
RTVSPropertyOp27
 70
     1
102
RTVSPropertyOp28
 70
     1
102
RTVSPropertyOp29
 70
     1
102
RTVSPropertyOp30
 70
     1
102
RTVSPropertyOp31
 70
     1
102
RTVSPropertyOp32
 70
     1
  0
XRECORD
  5
4CE
102
{ACAD_REACTORS
330
4CD
102
}
330
4CD
100
AcDbXrecord
280
     1
102
RTVSPropertyOp0
 70
     1
102
RTVSPropertyOp1
 70
     1
102
RTVSPropertyOp2
 70
     1
102
RTVSPropertyOp3
 70
     1
102
RTVSPropertyOp4
 70
     1
102
RTVSPropertyOp5
 70
     1
102
RTVSPropertyOp6
 70
     1
102
RTVSPropertyOp7
 70
     1
102
RTVSPropertyOp8
 70
     1
102
RTVSPropertyOp9
 70
     1
102
RTVSPropertyOp10
 70
     1
102
RTVSPropertyOp11
 70
     1
102
RTVSPropertyOp12
 70
     1
102
RTVSPropertyOp13
 70
     1
102
RTVSPropertyOp14
 70
     1
102
RTVSPropertyOp15
 70
     1
102
RTVSPropertyOp16
 70
     1
102
RTVSPropertyOp17
 70
     1
102
RTVSPropertyOp18
 70
     1
102
RTVSPropertyOp19
 70
     1
102
RTVSPropertyOp20
 70
     1
102
RTVSPropertyOp21
 70
     1
102
RTVSPropertyOp22
 70
     1
102
RTVSPropertyOp23
 70
     1
102
RTVSPropertyOp24
 70
     1
102
RTVSPropertyOp25
 70
     1
102
RTVSPropertyOp26
 70
     1
102
RTVSPropertyOp27
 70
     1
102
RTVSPropertyOp28
 70
     1
102
RTVSPropertyOp29
 70
     1
102
RTVSPropertyOp30
 70
     1
102
RTVSPropertyOp31
 70
     1
102
RTVSPropertyOp32
 70
     1
  0
XRECORD
  5
4D2
102
{ACAD_REACTORS
330
4D1
102
}
330
4D1
100
AcDbXrecord
280
     1
102
RTVSPropertyOp0
 70
     1
102
RTVSPropertyOp1
 70
     1
102
RTVSPropertyOp2
 70
     1
102
RTVSPropertyOp3
 70
     1
102
RTVSPropertyOp4
 70
     1
102
RTVSPropertyOp5
 70
     1
102
RTVSPropertyOp6
 70
     1
102
RTVSPropertyOp7
 70
     1
102
RTVSPropertyOp8
 70
     1
102
RTVSPropertyOp9
 70
     1
102
RTVSPropertyOp10
 70
     1
102
RTVSPropertyOp11
 70
     1
102
RTVSPropertyOp12
 70
     1
102
RTVSPropertyOp13
 70
     1
102
RTVSPropertyOp14
 70
     1
102
RTVSPropertyOp15
 70
     1
102
RTVSPropertyOp16
 70
     1
102
RTVSPropertyOp17
 70
     1
102
RTVSPropertyOp18
 70
     1
102
RTVSPropertyOp19
 70
     1
102
RTVSPropertyOp20
 70
     1
102
RTVSPropertyOp21
 70
     1
102
RTVSPropertyOp22
 70
     1
102
RTVSPropertyOp23
 70
     1
102
RTVSPropertyOp24
 70
     1
102
RTVSPropertyOp25
 70
     1
102
RTVSPropertyOp26
 70
     1
102
RTVSPropertyOp27
 70
     1
102
RTVSPropertyOp28
 70
     1
102
RTVSPropertyOp29
 70
     1
102
RTVSPropertyOp30
 70
     1
102
RTVSPropertyOp31
 70
     1
102
RTVSPropertyOp32
 70
     1
  0
XRECORD
  5
4DA
102
{ACAD_REACTORS
330
4D9
102
}
330
4D9
100
AcDbXrecord
280
     1
102
RTVSPropertyOp0
 70
     1
102
RTVSPropertyOp1
 70
     1
102
RTVSPropertyOp2
 70
     1
102
RTVSPropertyOp3
 70
     1
102
RTVSPropertyOp4
 70
     1
102
RTVSPropertyOp5
 70
     1
102
RTVSPropertyOp6
 70
     1
102
RTVSPropertyOp7
 70
     1
102
RTVSPropertyOp8
 70
     1
102
RTVSPropertyOp9
 70
     1
102
RTVSPropertyOp10
 70
     1
102
RTVSPropertyOp11
 70
     1
102
RTVSPropertyOp12
 70
     1
102
RTVSPropertyOp13
 70
     1
102
RTVSPropertyOp14
 70
     1
102
RTVSPropertyOp15
 70
     1
102
RTVSPropertyOp16
 70
     1
102
RTVSPropertyOp17
 70
     1
102
RTVSPropertyOp18
 70
     1
102
RTVSPropertyOp19
 70
     1
102
RTVSPropertyOp20
 70
     1
102
RTVSPropertyOp21
 70
     1
102
RTVSPropertyOp22
 70
     1
102
RTVSPropertyOp23
 70
     1
102
RTVSPropertyOp24
 70
     1
102
RTVSPropertyOp25
 70
     1
102
RTVSPropertyOp26
 70
     1
102
RTVSPropertyOp27
 70
     1
102
RTVSPropertyOp28
 70
     1
102
RTVSPropertyOp29
 70
     1
102
RTVSPropertyOp30
 70
     1
102
RTVSPropertyOp31
 70
     1
102
RTVSPropertyOp32
 70
     1
  0
XRECORD
  5
4E2
102
{ACAD_REACTORS
330
4E1
102
}
330
4E1
100
AcDbXrecord
280
     1
102
RTVSPropertyOp0
 70
     1
102
RTVSPropertyOp1
 70
     1
102
RTVSPropertyOp2
 70
     1
102
RTVSPropertyOp3
 70
     1
102
RTVSPropertyOp4
 70
     1
102
RTVSPropertyOp5
 70
     1
102
RTVSPropertyOp6
 70
     1
102
RTVSPropertyOp7
 70
     1
102
RTVSPropertyOp8
 70
     1
102
RTVSPropertyOp9
 70
     1
102
RTVSPropertyOp10
 70
     1
102
RTVSPropertyOp11
 70
     1
102
RTVSPropertyOp12
 70
     1
102
RTVSPropertyOp13
 70
     1
102
RTVSPropertyOp14
 70
     1
102
RTVSPropertyOp15
 70
     1
102
RTVSPropertyOp16
 70
     1
102
RTVSPropertyOp17
 70
     1
102
RTVSPropertyOp18
 70
     1
102
RTVSPropertyOp19
 70
     1
102
RTVSPropertyOp20
 70
     1
102
RTVSPropertyOp21
 70
     1
102
RTVSPropertyOp22
 70
     1
102
RTVSPropertyOp23
 70
     1
102
RTVSPropertyOp24
 70
     1
102
RTVSPropertyOp25
 70
     1
102
RTVSPropertyOp26
 70
     1
102
RTVSPropertyOp27
 70
     1
102
RTVSPropertyOp28
 70
     1
102
RTVSPropertyOp29
 70
     1
102
RTVSPropertyOp30
 70
     1
102
RTVSPropertyOp31
 70
     1
102
RTVSPropertyOp32
 70
     1
  0
XRECORD
  5
4D6
102
{ACAD_REACTORS
330
4D5
102
}
330
4D5
100
AcDbXrecord
280
     1
102
RTVSPropertyOp0
 70
     1
102
RTVSPropertyOp1
 70
     1
102
RTVSPropertyOp2
 70
     1
102
RTVSPropertyOp3
 70
     1
102
RTVSPropertyOp4
 70
     1
102
RTVSPropertyOp5
 70
     1
102
RTVSPropertyOp6
 70
     1
102
RTVSPropertyOp7
 70
     1
102
RTVSPropertyOp8
 70
     1
102
RTVSPropertyOp9
 70
     1
102
RTVSPropertyOp10
 70
     1
102
RTVSPropertyOp11
 70
     1
102
RTVSPropertyOp12
 70
     1
102
RTVSPropertyOp13
 70
     1
102
RTVSPropertyOp14
 70
     1
102
RTVSPropertyOp15
 70
     1
102
RTVSPropertyOp16
 70
     1
102
RTVSPropertyOp17
 70
     1
102
RTVSPropertyOp18
 70
     1
102
RTVSPropertyOp19
 70
     1
102
RTVSPropertyOp20
 70
     1
102
RTVSPropertyOp21
 70
     1
102
RTVSPropertyOp22
 70
     1
102
RTVSPropertyOp23
 70
     1
102
RTVSPropertyOp24
 70
     1
102
RTVSPropertyOp25
 70
     1
102
RTVSPropertyOp26
 70
     1
102
RTVSPropertyOp27
 70
     1
102
RTVSPropertyOp28
 70
     1
102
RTVSPropertyOp29
 70
     1
102
RTVSPropertyOp30
 70
     1
102
RTVSPropertyOp31
 70
     1
102
RTVSPropertyOp32
 70
     1
  0
XRECORD
  5
4D8
102
{ACAD_REACTORS
330
4D7
102
}
330
4D7
100
AcDbXrecord
280
     1
102
RTVSPropertyOp0
 70
     1
102
RTVSPropertyOp1
 70
     1
102
RTVSPropertyOp2
 70
     1
102
RTVSPropertyOp3
 70
     1
102
RTVSPropertyOp4
 70
     1
102
RTVSPropertyOp5
 70
     1
102
RTVSPropertyOp6
 70
     1
102
RTVSPropertyOp7
 70
     1
102
RTVSPropertyOp8
 70
     1
102
RTVSPropertyOp9
 70
     1
102
RTVSPropertyOp10
 70
     1
102
RTVSPropertyOp11
 70
     1
102
RTVSPropertyOp12
 70
     1
102
RTVSPropertyOp13
 70
     1
102
RTVSPropertyOp14
 70
     1
102
RTVSPropertyOp15
 70
     1
102
RTVSPropertyOp16
 70
     1
102
RTVSPropertyOp17
 70
     1
102
RTVSPropertyOp18
 70
     1
102
RTVSPropertyOp19
 70
     1
102
RTVSPropertyOp20
 70
     1
102
RTVSPropertyOp21
 70
     1
102
RTVSPropertyOp22
 70
     1
102
RTVSPropertyOp23
 70
     1
102
RTVSPropertyOp24
 70
     1
102
RTVSPropertyOp25
 70
     1
102
RTVSPropertyOp26
 70
     1
102
RTVSPropertyOp27
 70
     1
102
RTVSPropertyOp28
 70
     1
102
RTVSPropertyOp29
 70
     1
102
RTVSPropertyOp30
 70
     1
102
RTVSPropertyOp31
 70
     1
102
RTVSPropertyOp32
 70
     1
  0
XRECORD
  5
4E0
102
{ACAD_REACTORS
330
4DF
102
}
330
4DF
100
AcDbXrecord
280
     1
102
RTVSPropertyOp0
 70
     1
102
RTVSPropertyOp1
 70
     1
102
RTVSPropertyOp2
 70
     1
102
RTVSPropertyOp3
 70
     1
102
RTVSPropertyOp4
 70
     1
102
RTVSPropertyOp5
 70
     1
102
RTVSPropertyOp6
 70
     1
102
RTVSPropertyOp7
 70
     1
102
RTVSPropertyOp8
 70
     1
102
RTVSPropertyOp9
 70
     1
102
RTVSPropertyOp10
 70
     1
102
RTVSPropertyOp11
 70
     1
102
RTVSPropertyOp12
 70
     1
102
RTVSPropertyOp13
 70
     1
102
RTVSPropertyOp14
 70
     1
102
RTVSPropertyOp15
 70
     1
102
RTVSPropertyOp16
 70
     1
102
RTVSPropertyOp17
 70
     1
102
RTVSPropertyOp18
 70
     1
102
RTVSPropertyOp19
 70
     1
102
RTVSPropertyOp20
 70
     1
102
RTVSPropertyOp21
 70
     1
102
RTVSPropertyOp22
 70
     1
102
RTVSPropertyOp23
 70
     1
102
RTVSPropertyOp24
 70
     1
102
RTVSPropertyOp25
 70
     1
102
RTVSPropertyOp26
 70
     1
102
RTVSPropertyOp27
 70
     1
102
RTVSPropertyOp28
 70
     1
102
RTVSPropertyOp29
 70
     1
102
RTVSPropertyOp30
 70
     1
102
RTVSPropertyOp31
 70
     1
102
RTVSPropertyOp32
 70
     1
  0
XRECORD
  5
4C4
102
{ACAD_REACTORS
330
4C3
102
}
330
4C3
100
AcDbXrecord
280
     1
102
RTVSPropertyOp0
 70
     1
102
RTVSPropertyOp1
 70
     1
102
RTVSPropertyOp2
 70
     1
102
RTVSPropertyOp3
 70
     1
102
RTVSPropertyOp4
 70
     1
102
RTVSPropertyOp5
 70
     1
102
RTVSPropertyOp6
 70
     1
102
RTVSPropertyOp7
 70
     1
102
RTVSPropertyOp8
 70
     1
102
RTVSPropertyOp9
 70
     1
102
RTVSPropertyOp10
 70
     1
102
RTVSPropertyOp11
 70
     1
102
RTVSPropertyOp12
 70
     1
102
RTVSPropertyOp13
 70
     1
102
RTVSPropertyOp14
 70
     1
102
RTVSPropertyOp15
 70
     1
102
RTVSPropertyOp16
 70
     1
102
RTVSPropertyOp17
 70
     1
102
RTVSPropertyOp18
 70
     1
102
RTVSPropertyOp19
 70
     1
102
RTVSPropertyOp20
 70
     1
102
RTVSPropertyOp21
 70
     1
102
RTVSPropertyOp22
 70
     1
102
RTVSPropertyOp23
 70
     1
102
RTVSPropertyOp24
 70
     1
102
RTVSPropertyOp25
 70
     1
102
RTVSPropertyOp26
 70
     1
102
RTVSPropertyOp27
 70
     1
102
RTVSPropertyOp28
 70
     1
102
RTVSPropertyOp29
 70
     1
102
RTVSPropertyOp30
 70
     1
102
RTVSPropertyOp31
 70
     1
102
RTVSPropertyOp32
 70
     1
  0
XRECORD
  5
4C6
102
{ACAD_REACTORS
330
4C5
102
}
330
4C5
100
AcDbXrecord
280
     1
102
RTVSPropertyOp0
 70
     1
102
RTVSPropertyOp1
 70
     1
102
RTVSPropertyOp2
 70
     1
102
RTVSPropertyOp3
 70
     1
102
RTVSPropertyOp4
 70
     1
102
RTVSPropertyOp5
 70
     1
102
RTVSPropertyOp6
 70
     1
102
RTVSPropertyOp7
 70
     1
102
RTVSPropertyOp8
 70
     1
102
RTVSPropertyOp9
 70
     1
102
RTVSPropertyOp10
 70
     1
102
RTVSPropertyOp11
 70
     1
102
RTVSPropertyOp12
 70
     1
102
RTVSPropertyOp13
 70
     1
102
RTVSPropertyOp14
 70
     1
102
RTVSPropertyOp15
 70
     1
102
RTVSPropertyOp16
 70
     1
102
RTVSPropertyOp17
 70
     1
102
RTVSPropertyOp18
 70
     1
102
RTVSPropertyOp19
 70
     1
102
RTVSPropertyOp20
 70
     1
102
RTVSPropertyOp21
 70
     1
102
RTVSPropertyOp22
 70
     1
102
RTVSPropertyOp23
 70
     1
102
RTVSPropertyOp24
 70
     1
102
RTVSPropertyOp25
 70
     1
102
RTVSPropertyOp26
 70
     1
102
RTVSPropertyOp27
 70
     1
102
RTVSPropertyOp28
 70
     1
102
RTVSPropertyOp29
 70
     1
102
RTVSPropertyOp30
 70
     1
102
RTVSPropertyOp31
 70
     1
102
RTVSPropertyOp32
 70
     1
  0
XRECORD
  5
4C8
102
{ACAD_REACTORS
330
4C7
102
}
330
4C7
100
AcDbXrecord
280
     1
102
RTVSPropertyOp0
 70
     1
102
RTVSPropertyOp1
 70
     1
102
RTVSPropertyOp2
 70
     1
102
RTVSPropertyOp3
 70
     1
102
RTVSPropertyOp4
 70
     1
102
RTVSPropertyOp5
 70
     1
102
RTVSPropertyOp6
 70
     1
102
RTVSPropertyOp7
 70
     1
102
RTVSPropertyOp8
 70
     1
102
RTVSPropertyOp9
 70
     1
102
RTVSPropertyOp10
 70
     1
102
RTVSPropertyOp11
 70
     1
102
RTVSPropertyOp12
 70
     1
102
RTVSPropertyOp13
 70
     1
102
RTVSPropertyOp14
 70
     1
102
RTVSPropertyOp15
 70
     1
102
RTVSPropertyOp16
 70
     1
102
RTVSPropertyOp17
 70
     1
102
RTVSPropertyOp18
 70
     1
102
RTVSPropertyOp19
 70
     1
102
RTVSPropertyOp20
 70
     1
102
RTVSPropertyOp21
 70
     1
102
RTVSPropertyOp22
 70
     1
102
RTVSPropertyOp23
 70
     1
102
RTVSPropertyOp24
 70
     1
102
RTVSPropertyOp25
 70
     1
102
RTVSPropertyOp26
 70
     1
102
RTVSPropertyOp27
 70
     1
102
RTVSPropertyOp28
 70
     1
102
RTVSPropertyOp29
 70
     1
102
RTVSPropertyOp30
 70
     1
102
RTVSPropertyOp31
 70
     1
102
RTVSPropertyOp32
 70
     1
  0
XRECORD
  5
4CA
102
{ACAD_REACTORS
330
4C9
102
}
330
4C9
100
AcDbXrecord
280
     1
102
RTVSPropertyOp0
 70
     1
102
RTVSPropertyOp1
 70
     1
102
RTVSPropertyOp2
 70
     1
102
RTVSPropertyOp3
 70
     1
102
RTVSPropertyOp4
 70
     1
102
RTVSPropertyOp5
 70
     1
102
RTVSPropertyOp6
 70
     1
102
RTVSPropertyOp7
 70
     1
102
RTVSPropertyOp8
 70
     1
102
RTVSPropertyOp9
 70
     1
102
RTVSPropertyOp10
 70
     1
102
RTVSPropertyOp11
 70
     1
102
RTVSPropertyOp12
 70
     1
102
RTVSPropertyOp13
 70
     1
102
RTVSPropertyOp14
 70
     1
102
RTVSPropertyOp15
 70
     1
102
RTVSPropertyOp16
 70
     1
102
RTVSPropertyOp17
 70
     1
102
RTVSPropertyOp18
 70
     1
102
RTVSPropertyOp19
 70
     1
102
RTVSPropertyOp20
 70
     1
102
RTVSPropertyOp21
 70
     1
102
RTVSPropertyOp22
 70
     1
102
RTVSPropertyOp23
 70
     1
102
RTVSPropertyOp24
 70
     1
102
RTVSPropertyOp25
 70
     1
102
RTVSPropertyOp26
 70
     1
102
RTVSPropertyOp27
 70
     1
102
RTVSPropertyOp28
 70
     1
102
RTVSPropertyOp29
 70
     1
102
RTVSPropertyOp30
 70
     1
102
RTVSPropertyOp31
 70
     1
102
RTVSPropertyOp32
 70
     1
  0
XRECORD
  5
4DE
102
{ACAD_REACTORS
330
4DD
102
}
330
4DD
100
AcDbXrecord
280
     1
102
RTVSPropertyOp0
 70
     1
102
RTVSPropertyOp1
 70
     1
102
RTVSPropertyOp2
 70
     1
102
RTVSPropertyOp3
 70
     1
102
RTVSPropertyOp4
 70
     1
102
RTVSPropertyOp5
 70
     1
102
RTVSPropertyOp6
 70
     1
102
RTVSPropertyOp7
 70
     1
102
RTVSPropertyOp8
 70
     1
102
RTVSPropertyOp9
 70
     1
102
RTVSPropertyOp10
 70
     1
102
RTVSPropertyOp11
 70
     1
102
RTVSPropertyOp12
 70
     1
102
RTVSPropertyOp13
 70
     1
102
RTVSPropertyOp14
 70
     1
102
RTVSPropertyOp15
 70
     1
102
RTVSPropertyOp16
 70
     1
102
RTVSPropertyOp17
 70
     1
102
RTVSPropertyOp18
 70
     1
102
RTVSPropertyOp19
 70
     1
102
RTVSPropertyOp20
 70
     1
102
RTVSPropertyOp21
 70
     1
102
RTVSPropertyOp22
 70
     1
102
RTVSPropertyOp23
 70
     1
102
RTVSPropertyOp24
 70
     1
102
RTVSPropertyOp25
 70
     1
102
RTVSPropertyOp26
 70
     1
102
RTVSPropertyOp27
 70
     1
102
RTVSPropertyOp28
 70
     1
102
RTVSPropertyOp29
 70
     1
102
RTVSPropertyOp30
 70
     1
102
RTVSPropertyOp31
 70
     1
102
RTVSPropertyOp32
 70
     1
  0
XRECORD
  5
4D4
102
{ACAD_REACTORS
330
4D3
102
}
330
4D3
100
AcDbXrecord
280
     1
102
RTVSPropertyOp0
 70
     1
102
RTVSPropertyOp1
 70
     1
102
RTVSPropertyOp2
 70
     1
102
RTVSPropertyOp3
 70
     1
102
RTVSPropertyOp4
 70
     1
102
RTVSPropertyOp5
 70
     1
102
RTVSPropertyOp6
 70
     1
102
RTVSPropertyOp7
 70
     1
102
RTVSPropertyOp8
 70
     1
102
RTVSPropertyOp9
 70
     1
102
RTVSPropertyOp10
 70
     1
102
RTVSPropertyOp11
 70
     1
102
RTVSPropertyOp12
 70
     1
102
RTVSPropertyOp13
 70
     1
102
RTVSPropertyOp14
 70
     1
102
RTVSPropertyOp15
 70
     1
102
RTVSPropertyOp16
 70
     1
102
RTVSPropertyOp17
 70
     1
102
RTVSPropertyOp18
 70
     1
102
RTVSPropertyOp19
 70
     1
102
RTVSPropertyOp20
 70
     1
102
RTVSPropertyOp21
 70
     1
102
RTVSPropertyOp22
 70
     1
102
RTVSPropertyOp23
 70
     1
102
RTVSPropertyOp24
 70
     1
102
RTVSPropertyOp25
 70
     1
102
RTVSPropertyOp26
 70
     1
102
RTVSPropertyOp27
 70
     1
102
RTVSPropertyOp28
 70
     1
102
RTVSPropertyOp29
 70
     1
102
RTVSPropertyOp30
 70
     1
102
RTVSPropertyOp31
 70
     1
102
RTVSPropertyOp32
 70
     1
  0
XRECORD
  5
4DC
102
{ACAD_REACTORS
330
4DB
102
}
330
4DB
100
AcDbXrecord
280
     1
102
RTVSPropertyOp0
 70
     1
102
RTVSPropertyOp1
 70
     1
102
RTVSPropertyOp2
 70
     1
102
RTVSPropertyOp3
 70
     1
102
RTVSPropertyOp4
 70
     1
102
RTVSPropertyOp5
 70
     1
102
RTVSPropertyOp6
 70
     1
102
RTVSPropertyOp7
 70
     1
102
RTVSPropertyOp8
 70
     1
102
RTVSPropertyOp9
 70
     1
102
RTVSPropertyOp10
 70
     1
102
RTVSPropertyOp11
 70
     1
102
RTVSPropertyOp12
 70
     1
102
RTVSPropertyOp13
 70
     1
102
RTVSPropertyOp14
 70
     1
102
RTVSPropertyOp15
 70
     1
102
RTVSPropertyOp16
 70
     1
102
RTVSPropertyOp17
 70
     1
102
RTVSPropertyOp18
 70
     1
102
RTVSPropertyOp19
 70
     1
102
RTVSPropertyOp20
 70
     1
102
RTVSPropertyOp21
 70
     1
102
RTVSPropertyOp22
 70
     1
102
RTVSPropertyOp23
 70
     1
102
RTVSPropertyOp24
 70
     1
102
RTVSPropertyOp25
 70
     1
102
RTVSPropertyOp26
 70
     1
102
RTVSPropertyOp27
 70
     1
102
RTVSPropertyOp28
 70
     1
102
RTVSPropertyOp29
 70
     1
102
RTVSPropertyOp30
 70
     1
102
RTVSPropertyOp31
 70
     1
102
RTVSPropertyOp32
 70
     1
  0
ENDSEC
  0
EOF
